Unanimated - Ancient God Of Evil Chords & Tabs

 

Ancient God Of Evil Chords & Tabs

Unanimated Chords & Tabs

Version: 1 Type: Tab 0 ratings
1 star 2 stars 3 stars 4 stars 5 stars
comments

Ancient God Of Evil Tab

               BAND NAME: UNANIMATED
               CD-TITLE: ANCIENT GOD OF EVIL
               SONG: RUINS

Intro:

--12-12-12-12-|--10-10-10-10-|--12-12-12-12-|--13-13-13-13-|
--------------|--------------|--------------|--------------|
--------------|--------------|--------------|--------------|
--------------|--------------|--------------|--------------|
--------------|--------------|--------------|--------------|
--------------|--------------|--------------|--------------|


--10-10-------|--12-12-12-12-|
--------------|--------------|
--------------|--------------|
--------------|--------------|
--------------|--------------|
--------------|--------------| Repeat this 4 times.



--7-7-5-4-3-3-|-5-5----------|
--7-7-5-4-3-3-|-5-5----------|
--7-7-5-4-3-3-|-5-5----------|
--9-9-7-6-5-5-|-7-7----------|
--9-9-7-6-5-5-|-7-7----------|
--7-7-5-4-3-3-|-5-5----------| Repeat this 4 times.


Solo:


--------------|--------------|--------------|--------------|
--------------|--------------|--------------|--------------|
--7-7h9-7-9-10|--9-10-12-----|--12h13-15-13-|--12----------|
--------------|--------------|--------------|--------------|
--------------|--------------|--------------|--------------|
--------------|--------------|--------------|--------------|


[ Tab from: http://www.guitartabs.cc/tabs/u/unanimated/ancient_god_of_evil_tab.html ]
--------------|--------------|--------------|--------------|
--12-13-12----|--10h12h10----|--12h13h12----|--10h12h13----|
--------------|--------------|--------------|--------------|
--------------|--------------|--------------|--------------|
--------------|--------------|--------------|--------------|
--------------|--------------|--------------|--------------|

--------------|
--12h13h12----|
--------------|
--------------|
--------------|
--------------|



--7-7-5-4-3-3-|--5-5---------|
--7-7-5-4-3-3-|--5-5---------|
--7-7-5-4-3-3-|--5-5---------|
--9-9-7-6-5-5-|--7-7---------|
--9-9-7-6-5-5-|--7-7---------|
--7-7-5-4-3-3-|--5-5---------| Repeat this 4 times.


--7-7-5-7---8-|--8-----------|
--7-7-5-7---8-|--8-----------|
--7-7-5-7---8-|--8-----------|
--9-9-7-9---10|-10-----------|
--9-9-7-9---10|-10-----------|
--7-7-5-7---8-|--8-----------| Repeat this 4 times.


Small solo:

--------------|--------------|--------------|--------------|
--------------|--------------|--------------|--------------|
-------7-9-10-|--9-5-7-9-----|-----7-9-10-9-|--5-7-9-------|
--9-9---------|----------7-7-|--7-7---------|---------9-9--|
--------------|--------------|--------------|--------------|
--------------|--------------|--------------|--------------|

Till so far i tabbed it out ,further question email razor@euronet.nl
Comments