Un Loco - Nothing Chords & Tabs

 

Nothing Chords & Tabs

Un Loco Chords & Tabs

Version: 1 Type: Tab 0 ratings
1 star 2 stars 3 stars 4 stars 5 stars
comments

Nothing Tab

   
Song: "Nothing"
Band: Unloco
Transcribed by: Lee(crazy_freik)
Album: little nicky soundtrack

Tunning: Low to high B f# B E G# C#


Intro-verse
             I've got
B--0-----         --0-----             ---0----
F#-0----- Nothing --0----- Left for you---0---- to take away
B--0-----         --0-----             ---0----

Prechorus,  I dont think the guitar does anything,but I
            could be wrong.
[ Tab from: http://www.guitartabs.cc/tabs/u/un_loco/nothing_tab.html ]
Chorus
                      Fill
C#-----------------  -----------------------------
G#-----------------  -----------------------------
E------------------  -----------------------------
B--0---66---7------  --66666--7-777---------------
F#-0---66---5------  --66666--7-777---------------
B--0---66----------  --66666--7-777---------------

Repeat,Verse-prechorus-chorus

Bridge

I think he uses a superchorus dist. with a real heavy
Dist.

E--7---------------------7------------------------
B--7---------------------7------------------------
F#-5---------------------5------------------------
B-------------------------------------------------
If you play that with the correct dist. it sounds ok.

verse-chorus

Outro

B--0--000--0-000--0-000--0-000----
F#-0--000--0-000--0-000--0-000----
B--0--000--0-000--0-000--0-000----


Alot of people havent heard of unloco...YET, but they will. This song is 
tight, and if you like Limp,papa roach, then you will like these guys.

If you have somethin to correct mail me at
crazy_freik@yahoo.com
Comments