Ulver - A Memorable Fancy Plates 21 2 Chords & Tabs

 

A Memorable Fancy Plates 21 2 Chords & Tabs

Ulver Chords & Tabs

Version: 1 Type: Tab 0 ratings
1 star 2 stars 3 stars 4 stars 5 stars
comments

A Memorable Fancy Plates 21 2 Tab

                   ULVER - A MEMORABLE FANCY PLATES 21-22
 FROM THE ALBUM - THEMES FROM WILLIAM BLAKE'S THE MARRIAGE OF HEAVEN AND HELL
                        Copyright 1999 Jester Records
                                Version 1.0

Transcribed by:Mamonas Makis(GREECE)
Souidos82@hotmail.com

Check Out DEATH WARP With More Transcriptions On It:
               http://tiger.towson.edu/~dalvis1

Check Out 's Web Page, With More Transcriptions On It:
               /index.html 


To Join The Official 's Death Tab Mailing List Contact Rich at
 
[ Tab from: http://www.guitartabs.cc/tabs/u/ulver/a_memorable_fancy_plates_21_2_tab.html ]
.  - palm mute                  /  - slide up to
\  - slide down to              ~  - vibrato
h  - hammer on                  b  - bend
p  - pull off                        Suffixes for bend
ph - pinch harmonic                   
*  - see comment                      
X  - percussion mute             
@  - slight palm mute           () - ghost note, sustained note
"  - 4 strokes on one note
   
(I have always found...)
|------------------------------------------------------------------|
|------------------------------------------------------------------|
|7~--------------------6~-------------------6~-----------------4~--|
|9~--------------------9~-------------------5~-----------------5~--|
|-----------------Keaboard-(Transcribede-for-guitar)---------------|
|------------------------------------------------------------------|
                                                                 x6
(The swedenborg...)
|------------------------------------------------------------------|
|------------------------------------------------------------------|
|------------------------------------------------------------------|
|------------------------------------------------------------------|
|9~---------------------7~-------------------5~--------------------|
|7~---------------------5~-------------------3~--------------------|
|
|------------------------------------------------------------------|
|-3-3-3-3-3-3-3-3-3-3-3-3------------------------------------------|
|-4-4-4-4-4-4-4-4-4-4-4-4---The-same-theme-------------------------|
|-4-4-4-4-4-4-4-4-4-4-4-4------------------------------------------|
|------------------------------------------------------------------|
|------------------------------------------------------------------|
                                                                 x5
(It is so with...)
|------------------------------------------------------------------|
|------------------------------------------------------------------|
|------------------------------------------------------------------|
|13~--------------------11~-------------------9~-------------------|
|11~---------------------9~-------------------7~-------------------|
|------------------------------------------------------------------|
|
|------------------------------------------------------------------|
|------------------------------------------------------------------|
|13-13-13-13-13-13-13-13-13----------------------------------------|
|-----------------------------The-same-theme-----------------------|
|11-11-11-11-11-11-11-11-11----------------------------------------|
|------------------------------------------------------------------|
                                                                  x3
(Swedenborg has...)
|------------------------------------------------------------------|
|------------------------------------------------------------------|
|------------------------------------------------------------------|
|------------------------------------------------------------------|
|9~---------------------7~-------------------5~--------------------|
|7~---------------------5~-------------------3~--------------------|
|
|------------------------------------------------------------------|
|-3-3-3-3-3-3-3-3-3-3-3-3------------------------------------------|
|-4-4-4-4-4-4-4-4-4-4-4-4---The-same-theme-------------------------|
|-4-4-4-4-4-4-4-4-4-4-4-4------------------------------------------|
|------------------------------------------------------------------|
|------------------------------------------------------------------|
                                                                 x8
(From the writings...)
|------------------------------------------------------------------|
|------------------------------------------------------------------|
|------------------------------------------------------------------|
|13~--------------------11~-------------------9~-------------------|
|11~---------------------9~-------------------7~-------------------|
|------------------------------------------------------------------|
|
|------------------------------------------------------------------|
|------------------------------------------------------------------|
|13-13-13-13-13-13-13-13-13----------------------------------------|
|-----------------------------The-same-theme-----------------------|
|11-11-11-11-11-11-11-11-11----------------------------------------|
|------------------------------------------------------------------|
                                                                 x4

 END.


Check Out DEATH WARP, With More Transcriptions On It:
               http://tiger.towson.edu/~dalvis1

Check Out 's Web Page, With More Transcriptions On It:
               /index.html
Comments