Ultravox - Vienna Chords & Tabs

 

Vienna Chords & Tabs

Ultravox Chords & Tabs

Version: 1 Type: Tab

Vienna Tab

Author/Artist: Utravox - Midge Ure
Title: Vienna
Transcribed by: Darkriver
Email: douglasgow@hotmail.com

Piano /Keyboard / Violin score , but i just thought it would be a fun challange

to tab it for guitar  -  just use some kind of a harmonising effect.

-|-------------------------------------------|--|
-|-\5v---------------------------------------|--|
-|-------------------------------------------|--|
-|-------------------------------------------|--|
-|-------------------------------------------|--|
-|-------------------------------------------|--|
                                  12 sec--------|We walked in the cold air

-|----------------|---------------------------h3---|--------------------------|
-|-\6v------------|--------------------------------|-/5v----------------------|
-|----------------|--------------------------------|--------------------------|
-|----------------|--------------------------------|--------------------------|
-|----------------|--------------------------------|--------------------------|
-|----------------|--------------------------------|--------------------------|
 18sec     21sec-> Freezing breath on a window pane  Lying and waiting

------------------------------|------------------------h3---------------------|
-\6-/5------3\6-/5---6v-------|---------------------------------------\5v-----|
--------5----------5----------|-----------------------------------------------|
------------------------------|-----------------------------------------------|
------------------------------|-----------------------------------------------|
------------------------------|-----------------------------------------------|
                       33sec-> Man in the dark in a picture frame, so mystic
[ Tab from: http://www.guitartabs.cc/tabs/u/ultravox/vienna_tab.html ]
--------------|----------------------------|--------------------h5------------|
--------------|-\6-/5-----3\6-/5---6v------|----------------------------------|
--------------|--------5---------5---------|----------------------------------|
--------------|----------------------------|----------------------------------|
--------------|----------------------------|----------------------------------|
--------------|----------------------------|----------------------------------|
 and soulful.                       45sec-> A voice reaching out in a

------------------------------------------|-----------------------------------|
-----------/5-----------------------------|-/6-\5------3\6-/5---3v------------|
------------------------------------------|--------5----------5---------------|
------------------------------------------|-----------------------------------|
------------------------------------------|-----------------------------------|
------------------------------------------|-----------------------------------|
 piercing cry, It stays with you until

-6----------------------------------------------------6---3--5----------5--6--|
-3------------------------------------x--------------------------6--8---------|
------------------------------------------------------------------------------|
------------------------------------------------------------------------------|
------------------------------------------------------------------------------|
------------------------------------------------------------------------------|
 The feeling has gone only you and I.       It means nothing to me

-3--5-------5--6---3--5----------5--6---3--5--------5\-6v---------------------|
------6--8----------------6--8----------------6-------------------------------|
------------------------------------------------------------------------------|
------------------------------------------------------------------------------|
------------------------------------------------------------------------------|
------------------------------------------------------------------------------|
         This means nothing to me        Oh        Vienna.

------------------------------------------------------------------------------|
------------------------------------------------------------------------------|
------------------------------------------------------------------------------|
------------------------------------------------------------------------------|
------------------------------------------------------------------------------|
------------------------------------------------------------------------------|
 Other Verses To Follow.............