Ultrasound - Stay Young Chords & Tabs

 

Stay Young Chords & Tabs

Ultrasound Chords & Tabs

Version: 2 Type: Tab 0 ratings
1 star 2 stars 3 stars 4 stars 5 stars
comments

Stay Young Tab

   
ULTRASOUND - Stay Young

Maybe some of you remember Ultrasound from 1998. Anyway, they were a
fantastic band and this was their 'big' single. Play all the chords
as barre chords and turn it up loud :O)


INTRO RIFF
e---------------------------------------------------------------------------------------|
B---------------------------------------------------------------------------------------|
G-13-13-13---11---9---11---8----4-------------------------------------------------------|
D-13-13-13---11---9---11---8----4-------------------------------------------------------|
A-11-11-11---9----7---9----6----2-------------------------------------------------------|
E---------------------------------------------------------------------------------------|

PLAY 4 TIMES


E             G                A
In the future all this will be yours
                C   D
So do what you want
E                  G               A               C
You'll be dead and gone before you find out how it works
E         G                A
Hey kids, Rock and Roll is here
                  C        D
So scream all you want
E            G
It's a naked pagan glory
A             C
Celebrate the new
[ Tab from: http://www.guitartabs.cc/tabs/u/ultrasound/stay_young_tab_ver_2.html ]
E             G               A
My advice to all you boys and all you girls is
C     D
Never try to be old
E       C#m
I wanna Stay Young
      C         B
Wanna grow  and never come undone
E       C#m
I wanna go out
      C            B
Wanna have fun and never come back home

INTRO riff x2

E              G
It's a winter wonderland
A             C    D
Everything is new
E              G
Gary Glitter's gone to seed so
A                C
Who will lead us now?

E             G                A
My advice to all you boys and all you girls is
C      D
Never try to be old
E        C#m
I wanna Stay Young
      C         B
Wanna grow  and never come undone
E        C#m
I wanna go out
      C             B
Wanna have fun and never come back home

SOLO
  E             C#m            C         B
e----------------------------------------------------------------------------------------------|
B----9-9-9h10r9----9-9-9h10r9-----8-8-8--7-7-7-7h8r7-------------------------------------------|
G-9-9-9-9-------9-9-9-9--------9-9-9-9-9--8-8-8------------------------------------------------|
D----------------------------------------------------------------------------------------------|
A----------------------------------------------------------------------------------------------|
E----------------------------------------------------------------------------------------------|

                     PLAY SOLO TWICE


E        C#m
I wanna Stay Young
      C         B
Wanna grow  and never come undone
E        C#m
I wanna go out
      C             B
Wanna have fun and never come back home     x2


REPEAT CHORUS CHORDS SLOWLY TWICE (Without Lyrics)
AND END ON A BIG 'E' CHORD


starsailoruk@yahoo.com
Comments