Ultima Thule - Kring Sveriges Fana Chords & Tabs

 

Kring Sveriges Fana Chords & Tabs

Ultima Thule Chords & Tabs

Version: 1 Type: Tab 0 ratings
1 star 2 stars 3 stars 4 stars 5 stars
comments

Kring Sveriges Fana Tab

   
                         KRING SVERIGES FANA
                             ULTIMA THULE
                          SVEA HJÄLTAR(1991)

Intro
--------------------------------------------------------------------------
---------------------6--6-6--4-2-1--br---1-2p1----------------------------
-------3--6-5------5---------------------------3--3-5p3-1--1-0---1--0-----
-3---6----------------------------------------------------------------3---
--------------------------------------------------------------------------
--------------------------------------------------------------------------
[ Tab from: http://www.guitartabs.cc/tabs/u/ultima_thule/kring_sveriges_fana_tab.html ]
Riff
-----4-6--9-8------8-13--13--11-9-8------8-9p8-6--6-8p6-4--4-3---4--3-----
-6--------------------------------------------------------------------6---
--------------------------------------------------------------------------
--------------------------------------------------------------------------
--------------------------------------------------------------------------
--------------------------------------------------------------------------
 F5    Bb5  F5        Bb5        F5        Bb5       F5      C5      F5



Intro
Riff x2

Vers 1
F         Bb5         F5
Svenskar, vakna ur er dvala
Bb5                         F5
Länge nog vi sovit bort vår tid
Bb5          F5       C5        F5
Länge nog vi litat på löften så hala
                Bb5          F5
Man skriver oss lagar allt jämnt
Bb5                      F5
Aldrig man frågat oss om råd
Bb5         F5       C5   F5
Man tid för vila och möda bestämt

Refräng (x2):
G#5     D#5
Vad är det för trupp
F5               C5
Som i dag träder upp
C#5                      G#5
I enighet kring sveriges fana         
Bb5       C5
tvärtemot vana

Riff x2

Vers 2:
Enad front bland arbetets miljoner
Bådar nya dagens morgon väckt
Svenska folk, svenska land du ärvde traditioner
Ifrån frihetshjälten Engelbrekt
Nu så gäller det din frihet
Svenska folk, svenska land
Vi vill att du blir ett

Refräng x2
Riff x2

/metal_up_your_ass@2die4.com

Comments