Uk Subs - Barbies Dead Chords & Tabs

 

Barbies Dead Chords & Tabs

Uk Subs Chords & Tabs

Version: 1 Type: Tab 0 ratings
1 star 2 stars 3 stars 4 stars 5 stars
comments

Barbies Dead Tab

Intro and verse 1
e|------------------------------------|
B|------------------------------------|
G|------1111--999--12--11-------------|
D|--99--1111--999--12--11-------------|
A|--99---9-9--777--10---9-------------|
E|--77--------------------------------|

Verse 2
e|----------------/--------------------------|
B|----------------/--------------------------|
G|--77777--99999--/--1212121212--1111--1414--|
D|--77777--99999--/--1212121212--1111--1414--|
A|--55555--77777--/--1010101010---9-9--1212--|
E|----------------/--------------------------|

Verse 1
e|------------------------------------|
B|------------------------------------|
G|------1111--999--12--11-------------|
D|--99--1111--999--12--11-------------|
A|--99---9-9--777--10---9-------------|
E|--77--------------------------------|

Verse 2
e|----------------/--------------------------|
B|----------------/--------------------------|
G|--77777--99999--/--1212121212--1111--1414--|
D|--77777--99999--/--1212121212--1111--1414--|
A|--55555--77777--/--1010101010---9-9--1212--|
E|----------------/--------------------------|


Chorus
e|------------------------------------|
B|------------------------------------|
G|------1111--999--12--11-------------|
D|--99--1111--999--12--11-------------|
A|--99---9-9--777--10---9-------------|
E|--77--------------------------------|
[ Tab from: http://www.guitartabs.cc/tabs/u/uk_subs/barbies_dead_tab.html ]
Bridge
e|-----/-------------------------------------------|
B|-----/-------------------------------------------|
G|-----/--1111--99999--------1111--99999-----------|
D|--99-/--1111--99999--7--9--1111--99999-----------|
A|--99-/---9-9--77777--7--9---9-9--77777-----------|
E|--77-/---------------5--7------------------------|

Solo
e|--------------------|
B|--------------------|
G|-------11-9---------|
D|--7-9---------------|4X
A|--------------------|
E|--------------------|

Verse 1
e|------------------------------------|
B|------------------------------------|
G|------1111--999--12--11-------------|
D|--99--1111--999--12--11-------------|
A|--99---9-9--777--10---9-------------|
E|--77--------------------------------|

Verse 2
e|----------------/--------------------------|
B|----------------/--------------------------|
G|--77777--99999--/--1212121212--1111--1414--|
D|--77777--99999--/--1212121212--1111--1414--|
A|--55555--77777--/--1010101010---9-9--1212--|
E|----------------/--------------------------|

Bridge
e|-------------------------------------------------|
B|-------------------------------------------------|
G|--------1111--99999--------1111--99999-----------|
D|--7--9--1111--99999--7--9--1111--99999-----------|
A|--7--9---9-9--77777--7--9---9-9--77777-----------|
E|--5--7---------------5--7------------------------|

Chorus
e|------------------------------------|
B|------------------------------------|
G|------1111--999--12--11-------------|
D|--99--1111--999--12--11-------------|
A|--99---9-9--777--10---9-------------|
E|--77--------------------------------|

Thanks!!
By Paulo Roberto Marasca Filho.
Comments