Ugly Kid Joe - Madman Chords & Tabs

 

Madman Chords & Tabs

Ugly Kid Joe Chords & Tabs

Version: 1 Type: Tab 0 ratings
1 star 2 stars 3 stars 4 stars 5 stars
comments

Madman Tab

----------------------------------PLEASE NOTE---------------------------------#
#This file is the author's own work and represents their interpretation of the #
#song. You may only use this file for private study, scholarship, or research. #
#------------------------------------------------------------------------------##
"Madman" by Ugly Kid Joe
Tabbed by Mark van 't Zet (tmvtzet@cs.vu.nl)



INTRO - Riff A

--------------------------------------------------------------------------------
--------------------------------------------------------------------------------
--------------------------------------------------------------------------------
-------------------------------------------------------------12b13r12-----------
---0-0-0h12---0h11-10---0h9h10p9h10p9----0-0-0h12---0h11-0---12b13r12-----------
--------------------------------------------------------------------------------

                                       1st time ending   2nd time ending

--------------------------------------|-----------------|-----------12----------
--------------------------------------|-----------------|---------12--12--------
--------------------------------------|-----------------|-------13------13------
--------------------------------------|---------5/6--7--|--//14-----------14\\--
---0-0-0h12---0h11-10---0h9h10p9h10p9-|-0-0-0---3/4--5--|-----------------------
--------------------------------------|-----------------|-----------------------

3rd time ending

----------------------------------|
----------------------------------|
----------------------------------|
----------------------------------|
----------------------------------|
---0-0-0h12---0h11-0---10-8~~~~---|



VERSE PART 1 - Play riff A


VERSE PART 2 - Riff B

-------------5--5--5--5-------------------5--5--5--5----------------------------
-------------7--7--7--7-------------------7--7--7--7----------------------------
--7--5--7----7--7--7--7--------7--5--7----7--7--7--7----------------------------
--7--5--7----------------------7--5--7------------------------------------------
--5--3--5----------------------5--3--5------------------------------------------
--------------------------------------------------------------------------------


CHORUS - Riff C



--------------------------------------------------------------------------------
--------------------------------------------------------------------------------
--9-----9--8--7-----7--8--9--------7---5---7------------------------------------
--9-----9--8--7-----7--8--9--------7---5---7------------------------------------
--7-----7--6--5-----5--6--7--------5---3---5------------------------------------
--------------------------------------------------------------------------------


BRIDGE 1 - Riff D 
[ Tab from: http://www.guitartabs.cc/tabs/u/ugly_kid_joe/madman_tab.html ]
-------------------------------------0-0-0-0------------------------------------
-------------------------------------2-2-2-2------------------------------------
--7--5--7--5-------5--7--5--2--------2-2-2-2------------------------------------
--7--5--7--5-------5--7--5--2---------------------------------------------------
--5--3--5--3-------3--5--3--0---------------------------------------------------
--------------------------------------------------------------------------------


BRIDGE 2 - Riff E

----------------------------------------|---------------------------------------
----------------------------------------|---------------------------------------
-----------------------------------2--2-|---------------------------------------
--2--2-----------------2--2--------0--0-|-2--2-----------------2--2--7--7--5--5-
--0--0--5--5--5--4--2--0--0--5--5-------|-0--0--5--5--5--4--2--0--0--5--5--3--3-
--------3--3--3--2--0--------3--3-------|-------3--3--3--2--0-------------------



----------------------------------------|---------------------------------------
----------------------------------------|---------------------------------------
----------------------------------------|---------------------------------------
--2--2-----------------2--2--7--7--5--5-|-2--2-----------------2--2--7--7--5--5-
--0--0--5--5--5--4--2--0--0--5--5--3--3-|-0--0--5--5--5--4--2--0--0--5--5--3--3-
--------3--3--3--2--0-------------------|-------3--3--3--2--0-------------------


BRIDGE 3 - Riff F

(..) Dis-ney-land

--------------------------------------------------------------------------------
--------------------------------------------------------------------------------
--------------------------------------------------------------------------------
--12-0h10-0h16-0h12-0h10-0---12-0h10-0h16-0h17-16---12-0h10-0h16-0h12-0h10-0----
--------------------------------------------------------------------------------
--------------------------------------------------------------------------------

1st time ending            2nd time ending

--------------------------|-----------------------------------------------------
--------------------------|-----------------------------------------------------
--------------------------|-----------------------------------------------------
--------------------------|----2---2---2----------------------------------------
--12-0h10-0h16-0h12-0h10--|----2---2---2----------------------------------------
--------------------------|----0---0---0----------------------------------------


ENDING

----------------------------------------
----------------------------------------
---12--11--9----------------------------
--------------12--14--13--12------------
------------------------------15---12---
----------------------------------------


Comments