Ugly Kid Joe - Everything About You Chords & Tabs

 

Everything About You Chords & Tabs

Ugly Kid Joe Chords & Tabs

Version: 4 Type: Tab

Everything About You Tab

      Main Solo

E-----------------------------------------------------|
B----15-15-15-15--12------------------------12--------|
G--------------------12---14-14-14-14-----14--14------|
D-----------------------------------------------------|
A-----------------------------------------------------|
E-----------------------------------------------------|

E--------------------------------------15-14-13-------|
B----15-15-15-15--12----------------------------------|
G--------------------12---14-14-14-14--14-14-14-------|
D-----------------------------------------------------|
A-----------------------------------------------------|
E-----------------------------------------------------|

E-----------------------------------------------------|
B--15-15-15-15--12------------------------------------|
G------------------12---14-14-14-14---14-12------12---|
D-------------------------------------------12-14--14-|
A-----------------------------------------------------|
E-----------------------------------------------------|
[ Tab from: http://www.guitartabs.cc/tabs/u/ugly_kid_joe/everything_about_you_tab_ver_4.html ]
E-----------13--13-15^--------------------------------|
B--15--15-15--15--------------------------------------|
G-----------------------------------------------------|
D-----------------------------------------------------|
A-----------------------------------------------------|
E-----------------------------------------------------|

E--7-8-10-8-7---9-10-12-10-9--------------------------|
B------------------------------0-1-3-1-0--2-3-5-------|
G-----------------------------------------------------|
D-----------------------------------------------------|
A-----------------------------------------------------|
E-----------------------------------------------------|

E--7-8-10-8-7--------------------17-------------------|
B--------------10-------------17~---17~--15-----------|
G-----------------------------------------------------|
D-----------------------------------------------------|
A-----------------------------------------------------|
E-----------------------------------------------------|

    outros solos durante a musica

E---------------17\-----------------------------------|
B------12-14----17\-----------------------------------|
G----14--------------------------------14\------------|
D---------------------ou-----------11-14--------------|
A-----------------------------12----------------------|
E-----------------------------------------------------|

Tabbed by Ricardo Sousa
Portugal/Bombarral

I seek in the net and i cant find the song solo , but with a little patience
i tabbed out this great solo music its easy dont spear with the bends
RJR Rules