Ugly Kid Joe - Everything About You Chords & Tabs

 

Everything About You Chords & Tabs

Ugly Kid Joe Chords & Tabs

Version: 2 Type: Tab 0 ratings
1 star 2 stars 3 stars 4 stars 5 stars
comments

Everything About You Tab

this is a really cool song, sorry i couldn't do the whole song
but i hope this is alright

e|-2--------------------|
B|-3--------------------|
G|-2--------2-----------|
D|-0--------2-----------|
A|----2-----0--0--2--0--|
E|-------3--------------|

e|-2--------------------------|
B|-3--------------------------|
G|-2--------2-----------------|
D|-0--------2-----/5-----4h2--|
A|----2-----0--0------0-------|
E|-------3--------------------|
[ Tab from: http://www.guitartabs.cc/tabs/u/ugly_kid_joe/everything_about_you_tab_ver_2.html ]
e|-------2------------------5-----------|
B|-----3--------------------------------|
G|---2-------------------2--------------|
D|-0------------------2-----------------|
A|----------2-----0------------0--2--0--|
E|-------------3------------------------|

e|---2--------------------------|
B|-----3------------------------|
G|-------2--------2-------------|
D|-0--------------2-------------|
A|----------2-----0----0--2--0--|
E|-------------3----------------|

hope its ok 
david
Comments