Ugly Kid Joe - Everything About You Chords & Tabs

 

Everything About You Chords & Tabs

Ugly Kid Joe Chords & Tabs

Version: 1 Type: Bass Tab 0 ratings
1 star 2 stars 3 stars 4 stars 5 stars
comments

Everything About You Bass Tab

Tab : Ugly Kid Joe 
Music : I hate everything about you 

The base line isn't an exact transcription  off the record 


---------------------------------------------------------------
--0--------------------------0-----------------------------------
--------2-----0-----0--2---------2----0----0--------------------
-----------3------------------------3----------------------------


------------------------------------------------------- 
--0----------------------------------------------------
-----------2-----0----------0--2--0------------2-----0-
--------------3-----------------------------------3----

--------------------------------------------------------
--------------------------------------------------------
-----0------------0-------------0--------------------------
----------3-----------3-------------3---Return 1St---------------------

BRIDGE 
Some say I got a bad attitude
-------------------------------------------------------
-------------------------------------------------------
-------------------------------------------------------
3------3------------------2----2-------------------------
But that don't change the way I feel about you
[ Tab from: http://www.guitartabs.cc/tabs/u/ugly_kid_joe/everything_about_you_btab.html ]
--------------------------------------------------------
--------------------------------------------------------
0-----------0--------------------------------------------
-----------------------------------------2------2--------

---------------------------------------------------------------
--0--------------------------0-----------------------------------
--------2-----0-----0--2---------2----0----0--------------------
-----------3------------------------3----------------------------


SOLO
--------------------------------------------------------
--------------------------------------------------------
0---------------0--------------0------------------------
--------2--------------2-------------- 2----------------


FAST PART 
--------------------------------------------------------
0-------------------0----------------0------------------
-----0------------------0----------------0--------------
--------2--3---------------2--3-------------2--3--------


END 
-------------------------------------------
-------------------------------------------
-------------------------------------------
--10-10---8--8---7--7----6--6----5--5~-----


-------------------
-------------------
-------------------
--2-2-4-2-----1/2--

corrections or comment mail me at: socel@nw.com.br


Celso 

Comments