Ugly Casanova - Hotcha Girls Chords & Tabs

 

Hotcha Girls Chords & Tabs

Ugly Casanova Chords & Tabs

Version: 1 Type: Tab 0 ratings
1 star 2 stars 3 stars 4 stars 5 stars
comments

Hotcha Girls Tab

Tabbed by:CMM (originally by Marc A.)
Email: see good news tab.

Tuning:Standard

(Verse)
e|----------------|---------------|----------------|----------------|
B|----------------|---------------|----------------|----------------|
G|---5-----5-----5|-----5-----5---|---0-----0-----0|-----0-----0----|
D|-----3-----3----|-3-----3-----3-|-----2-----2----|-2-----2-----2--|
A|-5-----5-----5--|---5-----5-----|-3-----3-----3--|---3-----3------|
E|----------------|---------------|----------------|----------------|
   |_| |_| |_| |_|  |_| |_| |_| |   |_| |_| |_| |_|  |_| |_| |_| |


(Chorus)
e|---3-----2-------|--------------|---3-----2-------|--------------|
B|-----0-----0---3-|----0-----3-0-|-----0-----0---3-|----0-----3-0-|
G|-----------------|0-----0-------|-----------------|0-----0-------|
D|-----------------|--------------|-----------------|--------------|
A|-----------------|--------------|-----------------|--------------|
E|-3-----3-----3---|--3-----3-----|-3-----3-----3---|--3-----3-----|
   |_| |_| |_| |_|  |_| |_| |_| |   |_| |_| |_| |_|  |_| |_| |_| |
[ Tab from: http://www.guitartabs.cc/tabs/u/ugly_casanova/hotcha_girls_tab.html ]
e|---3-----2-------|--------------|---3-----2-------|--------------|
B|-----0-----0---3-|----0-----3-0-|-----0-----0---3-|----0-----3-0-|
G|-----------------|0-----0-------|-----------------|0-----0-------|
D|-----------------|--------------|-----------------|--------------|
A|-3-----3-----3---|--3-----3-----|-3-----3-----3---|--3-----3-----|
E|-----------------------------------------------------------------|
   |_| |_| |_| |_|  |_| |_| |_| |   |_| |_| |_| |_|  |_| |_| |_| |

(This can be played at the interlude as the sound in the background)
e|-------------------------|
B|-8-------5---------------|
G|-----------------4-------|
D|-------------------------|
A|-------------------------|
E|-------------------------|
   o       o       o

Notes: The songs in 4/4 time so play the rhythm as shown and it will sound right.
For the verse use your thumb for the D and A strings and your index finger for the
G string. For the first part of the Chorus use your thumb for the low E string,
your middle finger for the high e string and your index for the B string. For the
second part of the Chorus use your thumb for the A string, your middle finger for
the B string and your index finger for the g string. Even if you lost your ring
and pinky fingers you should be able to play this song. This is as clear as I can
make playing this song.

|   = quarter note

|_| = eigth note

o   = whole note

This site needs more U.C tabs
===============================================================================
Comments