Ugly Casanova - Diamonds On The Face Of Evil Chords & Tabs

 

Diamonds On The Face Of Evil Chords & Tabs

Ugly Casanova Chords & Tabs

Version: 1 Type: Tab 0 ratings
1 star 2 stars 3 stars 4 stars 5 stars
comments

Diamonds On The Face Of Evil Tab

   
Tabbed by:CMM
Email:colin_michael_muppet@hotmail.com

Tuning:Standard

(Main Riff)
e|--12--0--------------------------------12--0-------------------------|
B|---------12--12-------10---8--5---------------12--0-------10---8--0--|
G|--------------------9----9------------------------------9----9-------|
D|---------------------------------------------------------------------|
A|----------0---0--------------------------------0--0------------------|
E|---0--0-----------8---------------------0--0----------8--------------|

(Main Riff Variation)
e|-------------------------------------|
B|---------12--12--10------10---8--5---|
G|----------------------9-----9--------|
D|-12--14------------------------------|
A|----------0---0----------------------|
E|--0---0-----------8------------------|
[ Tab from: http://www.guitartabs.cc/tabs/u/ugly_casanova/diamonds_on_the_face_of_evil_tab.html ]
(Clarinet)
e|-----------------------------------------------|
B|-----------------------------------------------|
G|-----------------------------------------------|
D|-9/12\10---9/10\9/10\9\7--------5/7\5/7\5------|
A|------------------------------------------7----|
E|-----------------------------------------------|

NOTES: Note that there is a difference in the main riff when played, and that I did not
just type the same thing twice. As for the main riff variation, remember to hold onto the
high A before playing that note again. Finally, (though this is obviously not needed) to
play the guitar part, use your thumb to play any notes on the low E or the A string. For
the two appearing notes on the D string, use your index finger so the middle finger will
be read to hit the next notes. Play the notes on the G string with your index finger so
the middle finger can easily hit the few notes above it. Finally, play the B, and high E
string notes with your middle finger. Sha sha sha sha.

| /  slide up
| \  slide down
| h  hammer-on
| p  pull-off
| ~  vibrato
| +  harmonic
| x  Mute note
Comments