Ufo - Space Child Chords & Tabs

 

Space Child Chords & Tabs

Ufo Chords & Tabs

Version: 2 Type: Tab 0 ratings
1 star 2 stars 3 stars 4 stars 5 stars
comments

Space Child Tab

   
SPACE CHILD
UFO (Phenomenon)
Submitted by Kevin Murphy
----------------

intro/main riff
E-10-7--10-7- --------------|
B- ----- ----10--8-7----7---|
G- 0---- 0-0- --------7---9-|
D- ----- ---- 0--0-0--0-0---|
A- ----- ---- --------------|
E- ----- ---- ------------0-|

E-10-7--10-7- --------------|
B- ----- ----10-8-7---7-----|
G- 0---- 0-0- ------7---7-9-|
D- ----- ---- 0-0-0-0-0-0---|
A- ----- ---- --------------|
E- ----- ---- ------------0-|
[ Tab from: http://www.guitartabs.cc/tabs/u/ufo/space_child_tab_ver_2.html ]
Em                                             A
Goin' through pages and lookin' down lines and lines
Em                                     A
Space of your life is only passing you by

main riff x1

Space child ages as he turns and faces the lines
Then after laughter was caught in his throat as he died

main riff x1

Em     A
Fly on homeward

guitar solo - Em  A  x9

Worlds spinnin' by, makes clouds in your eyes and eyes
The space of your life is only passing you by

main riff x2

E--------------|
B--------------|
G-7h9p7s6s7s11-
D--------------|
A--------------|
E--------------|
   h=hammer
   p=pull
   s=slide
Comments