Ufo - Profession Of Violence Chords & Tabs

 

Profession Of Violence Chords & Tabs

Ufo Chords & Tabs

Version: 3 Type: Tab 0 ratings
1 star 2 stars 3 stars 4 stars 5 stars
comments

Profession Of Violence Tab

   
UFO - Profession of Violence

Solo:

  Am                               Am  (Solo starts here)
e|----------------0---------------|0-------------------------------|
B|------------1-------1-----------|1-----------------------5-------|
G|--------2---------------2-------|2-------2-------5---------------|
D|----2-----------------------2---|2-------------------------------|
A|0-------------------------------|0-------------------------------|
E|--------------------------------|--------------------------------|
      Profession      of_______    violence


  Fmaj7                            Em
e|--------------------------------|--------------------------------|
B|5^----------------------5-------|------------------------0-------|
G|----------------------------5---|4---------------0---------------|
D|--------------------------------|--------2-----------------------|
A|--------------------------------|--------------------------------|
E|--------------------------------|--------------------------------|
  (bend up semi-tone)

  G                                Am
e|--------------------------------|----------------3---1---0-------|
B|5-------------------------------|----------------------------3---|
G|------------------------5---4---|2-------2-----------------------|
D|--------------------------------|--------------------------------|
A|--------------------------------|--------------------------------|
E|--------------------------------|--------------------------------|


  Dm                               E
e|--------------------------------|----------------0---------------|
B|3-------------------------------|--------------------3---1---0---|
G|------------------------2-------|1-------------------------------|
D|--------------------------------|--------2-----------------------|
A|--------------------------------|--------------------------------|
E|--------------------------------|--------------------------------|



  Am                               Am/G
e|--------------------------------|--------------------------------|
B|1-----------------------3/------|5-----------------------5-------|
G|--------------------------------|--------2-------5---------------|
D|--------------------------------|--------------------------------|
A|--------------------------------|--------------------------------|
E|--------------------------------|--------------------------------|
                          (slide up)


  Fmaj7                            Em
e|--------------------------------|--------------------------------|
B|5^----------------------5-------|------------------------0-------|
G|----------------------------5---|4---------------0---------------|
D|--------------------------------|--------2-----------------------|
A|--------------------------------|--------------------------------|
E|--------------------------------|--------------------------------|
  (bend up semi-tone)

[ Tab from: http://www.guitartabs.cc/tabs/u/ufo/profession_of_violence_tab_ver_3.html ]
  G                                Am
e|--------------------------------|----------------3---1---0-------|
B|3-----------------------1---0---|----------------------------3---|
G|--------------------------------|2-------2-----------------------|
D|--------------------------------|--------------------------------|
A|--------------------------------|--------------------------------|
E|--------------------------------|--------------------------------|


  Dm                               E
e|--------------------------------|----------------0---------------|
B|3-------------------------------|--------------------3---1---0---|
G|------------------------2-------|1-------------------------------|
D|--------------------------------|--------2-----------------------|
A|--------------------------------|--------------------------------|
E|--------------------------------|--------------------------------|


  Am                               Am/G
e|--------------------------------|--------------------------------|
B|1---------------1---3---1---0---|----------------0---1---0-------|
G|--------------------------------|2-------2-------------------2---|
D|--------------------------------|--------------------------------|
A|--------------------------------|--------------------------------|
E|--------------------------------|--------------------------------|


  Fmaj7                            Em
e|--------------------------------|--------------------------------|
B|----------------0---1---0-------|----------------0---1---0-------|
G|----------------------------2---|----------------------------2---|
D|3-------------------------------|2-------------------------------|
A|--------------------------------|--------------------------------|
E|--------------------------------|--------------------------------|


  Dm                               C
e|--------------------------------|--------------------------------|
B|----------------0---1---0-------|----------------0---1---0-------|
G|----------------------------0---|2---------------------------2---|
D|0-------------------------------|--------------------------------|
A|--------------------------------|--------------------------------|
E|--------------------------------|--------------------------------|


  Fmaj7                            Em
e|--------------------------------|--------------------------------|
B|----------------0---1---0-------|--------------------------------|
G|----------------------------2---|--------------------------------|
D|3-------------------------------|2---------------2---0-----------|
A|--------------------------------|----------------------------3-2-|
E|--------------------------------|--------------------------------|


  Am
e|--------------------------------|
B|--------------------------------|
G|--------------------------------|
D|--------------------------------|
A|0-------------------------------|
E|--------------------------------|


The solo then continues an octave higher, in much the same vein, but rather more ornately!
Comments