Ufo - High Flyer Chords & Tabs

 

High Flyer Chords & Tabs

Ufo Chords & Tabs

Version: 1 Type: Tab 0 ratings
1 star 2 stars 3 stars 4 stars 5 stars
comments

High Flyer Tab

   
Ufo-High Flyer

Tabbed By Scott Bennett

intro
Two guitars probly played this riff in 2 differnt parts but here it is in 1

E-7--5--3--2------------3-|
B---0--0--0--05-7-5--3--3-|
G--0--0--0--0-------0--00-|
D-5--4--2--0-------0--0-0-|
A-------------3-5-3--2--2-|
E-----------------------3-|


E-7--5--3--2------------3---2357--5--3--2------------3-|
B---0--0--0--05-7-5--3--3-35-----0--0--0--05-7-5--3--3-|
G--0--0--0--0-------0--00-------0--0--0--0-------0--00-|
D-5--4--2--0-------0--0-0---0245--4--2--0-------0--0-0-|
A-------------3-5-3--2--2-23---------------3-5-3--2--2-|
E-----------------------3----------------------------3-|

Em     G     D
High flyer, winged birds
C       D          Em
You're so far out to sea
Em        G       D
Ships are passin' every night
C   D            Em
Oh, on my boyish dreams
C        D          G
And your every melody
C       D                G
Let the seaside toss him free
C      D              G    Em
Never, never hold him back
C         D
Rock and rollers drift by


guitar solo

E|------------------------------------------10b(12)-------12b(14)--15p14--12-|
B|---8--7--8--10--8--10b(12)-10--8--7--8s10----------8s10--------------------|
G|---------------------------------------------------------------------------|
D|---------------------------------------------------------------------------|
A|---------------------------------------------------------------------------|
E|---------------------------------------------------------------------------|

E|-11b(12)---12p10----------12p10-----------------------------|
B|-----------------12-10h12-------12-10h12p10-----------------|
G|--------------------------------------------12b(13)r-11-9~--|
D|------------------------------------------------------------|
A|------------------------------------------------------------|
E|------------------------------------------------------------|
[ Tab from: http://www.guitartabs.cc/tabs/u/ufo/high_flyer_tab.html ]
E|--------------------------------------------------10b(12)-------12b(14)--15p14--12-|
B|------7--8--10--8--10b(12)-10--8--7----------8s10----------8s10--------------------|
G|---9---------------------------------9--7~-----------------------------------------|
D|-----------------------------------------------------------------------------------|
A|-----------------------------------------------------------------------------------|
E|-----------------------------------------------------------------------------------|

E|-11b(12)-12-10--------------------------------------|
B|----------------12-10b(12)r-10h12-12-10-------------|
G|----------------------------------------12-11-9~----|
D|----------------------------------------------------|
A|----------------------------------------------------|
E|----------------------------------------------------|

E|--------------------------------------------------------------------------|
B|------10--8--7--7--8--10--10b(12)----10--8--7----------10--8--7--7--8--10-|
G|---9-------------------------------------------9----9---------------------|
D|--------------------------------------------------------------------------|
A|--------------------------------------------------------------------------|
E|--------------------------------------------------------------------------|

E|-------------------------------------------------------------|
B|-10b(12)-(12)10br-10-8-7---------------10--8--7--7--8--10----|
G|-------------------------9-7---------9-----------------------|
D|-----------------------------9-7-----------------------------|
A|---------------------------------7~--------------------------|
E|-------------------------------------------------------------|

E|-----------10--------------------------------------10s12-14-15-14h15p14-12-14-12-|
B|---10b(12)---(12)10br--10--8--7--7--8--10--7-------------------------------------|
G|---------------------------------------------9~----------------------------------|
D|---------------------------------------------------------------------------------|
A|---------------------------------------------------------------------------------|
E|---------------------------------------------------------------------------------|

E|-14h15h14-12-14-10-12-10~-----------------------------|
B|------------------------------------------------------|
G|------------------------------------------------------|
D|------------------------------------------------------|
A|------------------------------------------------------|
E|------------------------------------------------------|

The rest of the song is the same chords n riffs
ENJOY!!!
Couldn't the summer go so fast
Seems I'll never see you
One weekend and a photograph
Oh, on my boyish dreams
And your every melody
Let the seaside toss him free
Never, never hold him back
Rock and rollers drift by

Enjoy!
Comments