Uematsu Nobuo - To Zanarkand Chords & Tabs

 

To Zanarkand Chords & Tabs

Uematsu Nobuo Chords & Tabs

Version: 1 Type: Tab 0 ratings
1 star 2 stars 3 stars 4 stars 5 stars
comments

To Zanarkand Tab

Title: To Zanarkand
Game: Final Fantasy 10
Platform: PlayStation 2
Composer: Nobuo Uematsu


This is the song that is played if you let the game sit for a minute
at start up, or if you start a new game.

Remember, this isn't meant to be played on guitar, so I had to use 
different octaves in many places.  It still sounds the same if played
smoothly.  Some might have a hard time playing some of the notes in 
the right timing, but if you have a little experience, this shouldn't
too difficult.

        Tabbed by Nathan Brooks

Tuning: Drop D
          ~Legato~
1 |       |       |          |       |       |          |       |       |
|-0---------------0---2----|-3~-----------------------|-3------------------------|
|-------------0-------3----|-5~-----------------------|-----------------3---5----|
|---------0----------------|-5~-----------------------|-------------2-------5----|
|-----2-----------0--------|--------------------------|---------4----------------|
|--------------------------|-3~-----------------------|-----5-----------3--------|
|-2------------------------|--------------------------|-0------------------------|


4 |       |       |          |       |       |          |       |       |
|-2~-----------------------|-7-------7-------7--------|-7-------------------10---|
|-3~-----------------------|-----------------5---7----|-8-------10---------------|
|-4~-----------------------|-----0---7---5------------|-9------------------------|
|--------------------------|--------------------------|-9------------------------|
|-2~-----------------------|-3------------------------|-7------------------------|
|--------------------------|--------------------------|--------------------------|

                      (can slide if you want to)
7 |       |       |          |       |       |          |       |       |
|-2------------------------|-7~-----------------------|-0-------0-------0--------|
|-------------2---3---7----|--------------------------|---------0-------1---3----|
|---------4----------------|--------------------------|-------------2------------|
|-----4--------------------|--------------------------|-----2--------------------|
|-2------------------------|--------------------------|-0------------------------|
|--------------------------|--------------------------|--------------------------|
                      

10|       |       |          |       |       |          |       |       |
|-0-------------------3----|-1------------------------|-----------------5---8----|
|-1-------3~---------------|---------------------1----|-6-------6---8------------|
|-2------------------------|-------------0---2--------|-----5--------------------|
|--------------------------|---------3----------------|--------------------------|
|--------------------------|-----3--------------------|--------------------------|
|--------------------------|-3------------------------|--------------------------|


13|       |       |          |       |       |          |       |       |
|-0---------------0---2----|-3-------2-------0--------|-------------0------------|
|-------------0------------|-0------------------------|-3---------------3--------|
|-0---------------0---2----|-----0--------------------|--------------------------|
|-2-------2---4------------|-------------4---2--------|-4-------0---2---4---0----|
|-----2--------------------|-3-------------------3----|-----0--------------------|
|-2------------------------|--------------------------|-0------------------------|


16|       |       |          |       |       |          |       |       |
|--------------------------|-0---------------0---2----|-3-------2-------3--------|
|-0---------------0---3----|-------------0------------|-0------------------------|
|-0-------0---2------------|-0---------------0---2----|-----0--------------------|
|-----0--------------------|---------2---4------------|-------------4---2--------|
|--------------------------|-----2--------------------|-3-------------------3----|
|-5------------------------|-2------------------------|--------------------------|


19|       |       |          |       |       |          |       |       |
|-5-----------3---5--------|-7------------------------|-0---------------0---2----|
|-7-----------5---7--------|-8------------------------|-------------0------------|
|--------------------------|---------------------7----|-0---------------0---2----|
|-7-------0---5---7--------|---------5---7---9--------|---------2---4------------|
|-----0---------------0----|-----5--------------------|-----2--------------------|
|-0------------------------|-5------------------------|-2------------------------|

[ Tab from: http://www.guitartabs.cc/tabs/u/uematsu_nobuo/to_zanarkand_tab.html ]
22|       |       |          |       |       |          |       |       |
|-3-------2-------0--------|--------------------------|-------------0------------|
|-0------------------------|-0------------------------|-3---------------3--------|
|-----0--------------------|-0-------0-------0---2----|--------------------------|
|-------------4---2--------|-----0-------0-------4----|-4-------0---2---4--------|
|-3-------------------3----|-----------------2--------|-----0---------------3----|
|--------------------------|-5------------------------|-0------------------------|


25|       |       |
|--------------------------|
|-0-------0-------0--------|
|---------0----------------|
|-----2-------2-------2----|
|-3---------------2--------|
|--------------------------|


26|       |       |          |       |       |          |       |       |
|--------------------------|-3-----------3---2--------|---------------------8----|
|-0---------------3--------|---------------------3----|-5-----------5---8--------|
|---------2----------------|---------2----------------|---------5----------------|
|-4------------------------|-----2--------------------|-----5--------------------|
|-5------------------------|-0---------------2--------|-3------------------------|
|--------------------------|--------------------------|--------------------------|

(use harmonic)
29|       |       |          |       |       |          |       |       |
|-------------0---3----|-5---------------0--------|-5------------------------|
|-------------1------------|---------------------5----|---------3----------------|
|---------0----------------|---------2---4---5--------|-----------------5--------|
|-----2--------------------|-----2--------------------|---------3---5---3--------|
|--------------------------|-0------------------------|-----3---------------3----|
|--------------------------|--------------------------|-3------------------------|


32|       |       |          |       |       |          |       |       |
|-----------------3--------|-3------------------------|-----------------2--------|
|-0---------------0---3----|-5-------------------0----|-------------2---3---5----|
|-0-------0---2------------|-4---------------0--------|-4-------4----------------|
|-----0--------------------|---------2---4------------|-----4--------------------|
|--------------------------|-----2--------------------|-2------------------------|
|-5------------------------|-2------------------------|--------------------------|


35|       |       |          |       |       |          |       |       |
|-2------------------------|-----------------0--------|-0------------------------|
|-2------------------------|-------------0---1--------|-0-------4-------0--------|
|-2------------------------|-2-------2-----------2----|---------------------2----|
|-4------------------------|-----2--------------------|-4------------------------|
|--------------------------|-0------------------------|-2------------------------|
|--------------------------|--------------------------|--------------------------|


38|       |       |          |       |       |          |       |       |
|-----------------2--------|-2-------0----------------|-----------------5--------|
|-------------2---3--------|-----------------3--------|-2-----------0---2--------|
|-4-------4-----------4----|---------0---2---4--------|---------2----------------|
|-----4--------------------|-----0---------------0----|-----2---------------2----|
|-2------------------------|--------------------------|-0------------------------|
|--------------------------|-5------------------------|--------------------------|


41|       |       |          |       |       |          |       |       |
|-5------------------------|-4------------------------|-----------------2--------|
|-7-------------------0----|---------5----------------|-0---------------0--------|
|-6------------------------|-6---------------6--------|-0------------------------|
|---------4---6---7--------|-6------------------------|-0---------------0--------|
|-----4--------------------|-4------------------------|--------------------------|
|-4------------------------|--------------------------|-5------------------------|

                             (let all ring as long as possible)
44|       |       |          |       |       |          |       |       |
|--------------------------|--------------------------|-2~-----------------------|
|--------------------------|-0---------------0---4----|--------------------------|
|-2---------------2--------|--------------------------|--------------------------|
|-2-----------4---2--------|-1-------1---4------------|--------------------------|
|-4------------------------|-2---2--------------------|--------------------------|
|--------------------------|--------------------------|--------------------------|


Have fun with Final Fantasy 10, if you like it, I also did a tab in the PSX area 
on Final Fantasy 9, it is Steiner's Theme.

Comments