Uematsu Nobuo - Steiner Chords & Tabs

 

Steiner Chords & Tabs

Uematsu Nobuo Chords & Tabs

Version: 1 Type: Tab 0 ratings
1 star 2 stars 3 stars 4 stars 5 stars
comments

Steiner Tab

   
system:  Playstation
game title: Final Fantasy IX 
Song:  Steiner's theme
Composer: Nobuo Uematsu

	tabbed by Nathan Brooks	

This may look a little slow, but it is a more difficult piece to play, 
since it wasn't meant for guitar.  In the beginning, do not try to play the 
"3" and the "8"s at the same time, stop the 3, then play the 8's after 
there is no sound. (for those of you who don't know what Stacatto is)

Standard Tuning          "Stacatto"

Part I
  |     |     |     |        |     |     |     |        |     |     |     |
|-------8-----------8------|-------8-----------9------|-------8-----------8------|
|-------8-----------8------|-------9-----------9------|-------8-----------8------|
|-------8-----------8------|-------8-----------10-----|-------8-----------8------|
|--------------------------|--------------------------|--------------------------|
|-3------------------------|-------------4------------|-3------------------------|
|-------------3------------|-4------------------------|-------------3------------|


  |     |     |     |        |     |     |     |        |     |     |     |
|-------9-----------6------|--------------------------|-------------------6------|
|-------9-----------6------|-----3-4---6-8------------|----------------6-----10--|
|-------10----------7------|-5------------------------|--------------------------|
|--------------------------|--------------------------|--------------------------|
|--------------------------|-3-----------6------------|-5------------------------|
|-4-----------6------------|--------------------------|-------------6------------|


  |   h |     |     |        |     |     |     |        |     |     |     |
|-3--1343------------------|--------------------------|-----------8-10---------6-|
|--------------------------|--------------------------|-8--10-11-----------------|
|--------------------------|--------------------------|--------------------------|
|--------------------------|--------------------------|--------------------------|
|-3-----------6------------|-5------------------------|-------------6------------|
|--------------------------|-------------3------------|-8------------------------|

[ Tab from: http://www.guitartabs.cc/tabs/u/uematsu_nobuo/steiner_tab.html ]
  |        | p       |        |           |     |     |     |       
|----------1311-10---7------7-10--------|-8---7-8--10-11-10-8---7--|
|-10-11-13--------13----10--------------|--------------------------|
|---------------------------------------|--------------------------|
|---------------------------------------|--------------------------|
|---------------------------------------|--------------------------|
|-10-----------------7------------------|-8------------------------|


  |     |     |     |       
|-8-----3------------------|
|--------------------------|
|-------------5------------|
|-10----5-----5------------|
|-------------3------------|
|-8-----3------------------|


Part II
  |     |     |     |        |     |     |     |        |     |     |     |
|-------------3------------|--------------------------|--------------------------|
|-----3-4---6--------------|--------------------------|--------------------------|
|-5-----------------5------|-------5------------------|-----0-1---3-5------------|
|-------5-----------5------|-------5------------------|-3-----------------3------|
|-3------------------------|-3------------------------|-------3-----------3------|
|-------------3------------|-------------3-----0------|-1-----------4------------|



  |     |     |     |        |     |     |     |        |     |     |     |
|--------------------------|-------------1-----3------|-1------------------------|
|--------------------------|-0---1-3---4-------0------|-------0-----------3------|
|-------1------------------|-------0-----------0------|-------0-----------4------|
|-------3------------------|--------------------------|-0-----------------5------|
|-3------------------------|-------------2------------|-------------2------------|
|-------------4-----1------|-3------------------------|--------------------------|



  |     |     |     |        |     |     |     |       
|--------------------------|--------------------------|
|-1---0-1---3-4---3-1---0--|-1------------------------|
|-------------0------------|-------------5------------|
|-------1-----------1------|-------1-----5------------|
|-3------------------------|-3-----------3------------|
|--------------------------|--------------------------|

There is more, but it is just different variations of the same thing.  
Have fun with it, I might put more on later.

Comments