Ubago Alex - A Gritos De Esperanza Chords & Tabs

 

A Gritos De Esperanza Chords & Tabs

Ubago Alex Chords & Tabs

Version: 1 Type: Chords 1 rating
1 star 2 stars 3 stars 4 stars 5 stars
comments

A Gritos De Esperanza Chords

   
     G 
    A pesar
               D        Em    Bm
    De que la luna no brille
    C*
    Mañana
               G
    Me dará igual
                 D
    Solo verte reir
                         Em   Bm
    Es lo que me hace feliz, 
    C*
    Mi alma

             G 
    Y es verdad 
                       D
    Que una mirada distinta
                        Em   Bm
    O algún gesto más frío 
    C*
    Se clava
           G
    En mi pecho
                     D
    Daga del desconcierto

    Pero amor
      Em   Bm    C*
    Ahí está la magia


      C
    Ahora que te veo, niña
     D
    Ya te echo de menos
           G          D    
    No imagino mis heridas
              Em       
    Si algún día te vas lejos
         C  C*
    QuerríA
        D   D*
    Por esto



    G                    D
     Que si preguntan por mí
    Em                 Bm
     No les digas donde fuí
            C
     Que tu alma sea fuerte
               D
     Y cuando mires hacia el frente
            G           D            Em
     No recuerdes todo lo que no te dí
                C           
     Y es que quedan tantas cosas
             D
     Por contarte y que me cuentes
             G          D           Em
     Tantos ratos y pasiones por vivir
           C   C*
     A tu lado
             D   D*
     Oh, mi vida
           G
     A tu lado


    Solo:
    E-||------------10---8-7-5/7-5---5-7-8-5/7---------------------
    B-||--------5-7-----------------------------5--7-8-8/10--------
    G-||--4-5-7---------------------------------------------7-7----
    D-||-----------------------------------------------------------
    A-||-----------------------------------------------------------
    E-||-----------------------------------------------------------

    E-||-------7/8-8-8-8--7-5---------0-2-2/3-2-5--3---
    B-||----------------------3---3-3------------------
    G-||--7-7--8/9-9-9-9--7-5-------------------5--4---
    D-||----------------------4------------------------
    A-||-----------------------------------------------
    E-||-----------------------------------------------
[ Tab from: http://www.guitartabs.cc/tabs/u/ubago_alex/a_gritos_de_esperanza_crd.html ]
    E-||--3-2-0--------------3-2-0/2-2---------------2-3-10-8-7--------
    B-||----------3-3/5-5------------------------3-5------------10-8---
    G-||--4-2-0--------------4-2-0/2-2-------4-5-----------------------
    D-||----------4-4/5-5----------------5-7---------------------------
    A-||---------------------------------------------------------------
    E-||---------------------------------------------------------------


          G
    Y ojalá
                 D         Em    Bm
    Que nuestros ojos sí brillen
    C*
    Mañana
              G                      D 
    Y que tu voz siga pidiéndome a gritos amor
        Em      G    C*
    A gritos de esperanza

      C
    Ahora que te tengo
            D
    No pienso perder el tiempo
           G              D            
    Ni perderme por mi absurdo ego
       Em
    Ni un solo momento
          C   C*
    Se esfuma
         D   D*   
    El miedo

    G                    D
     Y si preguntan por mí
    Em                   Bm
     No les digas donde fuí
            C
     Que tu alma sea fuerte
               D
     Y cuando mires hacia el frente
            G           D            Em
     No recuerdes todo lo que no te dí
             C
     Que tu luz brille por siempre
             D
     Porque tu te lo mereces
           G             D         Em
     Y perdona si algún día pretendí
              C    C*
     Que no fueras
             D    D*
     Oh, tu misma

    G                    D
     Y si preguntan por tí
    Em                 Bm
     Solo diré que te vi
              C
     En mis sueños una noche
              D
     Y sólo sueño desde entonces
           G          D           Em
     Para verme cada día junto a tí
                C
     Y es que quedan tantas cosas
             D
     Por contarte y que me cuentes
             G         D            Em
     Tantos ratos y pasiones por vivir
           C   C*
     A tu lado
             D   D*
     Oh, mi vida
                 G    D   Em Bm C*   G
     A tu lado



Comments