U2 - Zoo Station Chords & Tabs

 

Zoo Station Chords & Tabs

U2 Chords & Tabs

Version: 3 Type: Tab 0 ratings
1 star 2 stars 3 stars 4 stars 5 stars
comments

Zoo Station Tab

ZOO STATION

Music by U2 - Lyrics by Bono and The Edge

(LIVE VERSION FROM ZOO TV TOUR - 1993)

[Tune down your guitar 1/2 step - Heavy distortion]

1----------|
2----------| [Slide from 15th to 3rd fret picking several times on String 1]
3----------|
4----------|	x4
5----------|
6--/15\3h5-|

1--------------------------|
2--------------------------|
3-------------------- x10--|
4--------------------------|
5-0---0-0-0---------- <----| [Play these notes near the bridge]
6------------/15\3h5-------|

1--------12------12------12-----12-------12------12-----12-------12-|
2-------------------------------------------------------------------|
3-----14----14------14-----14---------14----14-----14------14-------|
4--12----------12------12----12----11----------11-----11------11----| x2
5-------------------------------------------------------------------|
6-------------------------------------------------------------------|

I'm ready...

1-------------------------------|
2-------------------------------|
3-------------------------------|
4-------------------------------|
5-0-x-x-x--0-0-0---------- <----| [Play these notes near the bridge]
6----------------/15\3h5--------|

I'm ready for the laughing gas
I'm ready
Ready for what's next
Ready to duck
Ready to dive
Ready to say
I'm glad to be alive
I'm ready
Ready for the push

1----------------|
2----------------|
3----------------|
4----------------|
5-0-x-x-x--0-0-0-|
6----------------|

In the cool of the night
In the warmth of the breeze
I'll be crawling around
On my hands and knees

1--------12------12------12-----12-------12------12-----12-------12-|
2-------------------------------------------------------------------|
3-----14----14------14-----14---------14----14-----14------14-------|
4--12----------12------12----12----11----------11-----11------11----| x2
5-------------------------------------------------------------------|
6-------------------------------------------------------------------|

Zoo Station
Zoo Station

I'm ready...
[ Tab from: http://www.guitartabs.cc/tabs/u/u2/zoo_station_tab_ver_3.html ]
1-------------------------------|
2-------------------------------|
3-------------------------------|
4-------------------------------|
5-0-x-x-x--0-0-0---------- <----| [Play these notes near the bridge]
6----------------/15\3h5--------|

Ready for the gridlock
I'm ready
To take it to the street
Ready for the shuffle
Ready for the deal
Ready to let go
Of the steering wheel
I'm ready
Ready for the crush

1--------12------12------12-----12-------12------12-----12-------12-|
2-------------------------------------------------------------------|
3-----14----14------14-----14---------14----14-----14------14-------|
4--12----------12------12----12----11----------11-----11------11----| x2
5-------------------------------------------------------------------|
6-------------------------------------------------------------------|

Zoo Station
Zoo Station

It's alright ... it's alright ... it's alright ... it's alright
Hey baby ... it's alright


1--5--5---5-5--5------------------|
2--5--5---5-5--5------------------|
3--6--6---6-6--6------------------|
4--7--7---7-7--7------------------| x2
5--7--7---7-7--7------------------|
6--5--5---5-5--5------------------|

Time is a train
Makes the future the past
Leaves you standing in the station
Your face pressed up against the glass

1--------12------12------12-----12-------12------12-----12-------12-|
2-------------------------------------------------------------------|
3-----14----14------14-----14---------14----14-----14------14-------|
4--12----------12------12----12----11----------11-----11------11----| x6
5-------------------------------------------------------------------|
6-------------------------------------------------------------------|

Zoo Station
Zoo Station

1-----------------------------------------------|
2--------------10--10-8-7-8---10-10--10-8-7-8---|
3-----------------------------------------------| x2
4--11---11-9-7---7----------7-------7-----------|
5-----------------------------------------------|
6-----------------------------------------------|

1-----|
2--10-|
3--9--|
4--7--|
5--7--|
6-----|

zooman@libero.it
Comments