U2 - Your Blue Room Chords & Tabs

 

Your Blue Room Chords & Tabs

U2 Chords & Tabs

Version: 1 Type: Bass Tab 0 ratings
1 star 2 stars 3 stars 4 stars 5 stars
comments

Your Blue Room Bass Tab

 U2 "Your blue room" - Bass tab
 ------------------------------
 
 This is a very good song where the bass line sounds so cool.
 
 Main riff:
 
 G|----------------------------------------------------------------------
 D|----------------------------------------------------------------------
 A|---------------5-----------------3-----------------5-------------3----
 E|--5-7-0----5-7------5-7-1----5-7------5-7-0----5-7------1----5-7------
[ Tab from: http://www.guitartabs.cc/tabs/u/u2/your_blue_room_btab.html ]
 Interlude:
 G|---------------------------------------------------------------------
 D|---------------------------------------------------------------------
 A|--8-----8----7----7---------10---------------------10----------------
 E|-----------------------8----------10----10----8----------10----10----

 Then back to the main riff. That's all!
 
 You can also play it at the top of the fretboard  

 G|----------------------------------------------------------------------
 D|---------------0-----------------------------------0------------------
 A|--0-2------0-2------0-2------0-2-3----0-2------0-2-----------0-2-3----
 E|------0-----------------1-----------------0-------------1-------------
 
 The interlude stays the same. 

 Tabbed by Roberto Cruz
 zurc@sprint.ca


Comments