U2 - With Or Without You Chords & Tabs

 

With Or Without You Chords & Tabs

U2 Chords & Tabs

Version: 1 Type: Tab 1 rating
1 star 2 stars 3 stars 4 stars 5 stars
comments

With Or Without You Tab

   
=-=-=-=-=-=-=-=-=-=-=-=-=-=
U2
With Or Without You
The Joshua Tree
Tabbed by Leandro Koren
leandro_koren@yahoo.com.ar
=-=-=-=-=-=-=-=-=-=-=-=-=-=

Intro (For all the song):

E|-|--10----------10-----------|-|
B|-|--------10----------10-----|-|
G|-|-----------11----------11--|-|
D|-|----12----------12---------|-|
A|-|---------------------------|-|
e|-|---------------------------|-|

Intro & Verse & Chorus:  D D/A Bm7 G/D
These are the chords.

E|-|--2--2--2--3--|-|
B|-|--3--3--3--3--|-|
G|-|--2--2--2--0--|-|
D|-|--0--X--4--0--|-|
A|-|--X--0--2--X--|-|
e|-|--X--X--X--X--|-|

Verse:

 D      D/A                 Bm7
See the stone set in your eyes,
         G/D                 D
See the thorn twist in your side
D/A         Bm7  G/D
I wait for you

Verse:

Sleight of hand and twist of fate
On a bed of nails she makes me wait
And I wait... without you

Chorus:

With or without you.
With or without you.

Through the storm we reach the shore.
You give it all but I want more,
And I'm waiting for you.

With or without you, with or without you,
I can't live with or without you.

Chorus:
[ Tab from: http://www.guitartabs.cc/tabs/u/u2/with_or_without_you_tab.html ]
E|-|----10---10-10---10----------------|-|
B|-|--8----8-------8----7--------------|-|
G|-|----------------------------0-0-0--|-|
D|-|----------------------0-0-0--------|-|
A|-|-----------------------------------|-|
e|-|-----------------------------------|-|

And you give yourself away.
And you give yourself away.
And you give,
And you give,
And you give yourself away.

My hands are tied,
My body bruised, she's got me with.
Nothing to win,
And nothing else to lose.

And you give yourself away.
And you give yourself away.
And you give,
And you give,
And you give yourself away.

With or without you,
With or without you.
I can't live,
With or without you.

Oohh...
Oohh...
Oohh...

With or without you,
With or without you.
I can't live,
With or without you.
With or without you.

Solo:
They are these chords, just find the rhythm.
With delay.

      D           Dsus2       D/G         Dsus4/G
E|-|--2-2-2-2--|--0-0-0-0--|--2-2-2-2--|-h3-3-3-3--|-|
B|-|--3-3-3-3--|--3-3-3-3--|--3-3-3-3--|--3-3-3-3--|-|
G|-|--2-2-2-2--|--2-2-2-2--|--0-0-0-0--|--0-0-0-0--|-|
D|-|--0-0-0-0--|--0-0-0-0--|--0-0-0-0--|--0-0-0-0--|-|
A|-|-----------|-----------|-----------|-----------|-|
e|-|-----------|-----------|-----------|-----------|-|
Comments