U2 - Where The Street Have No Name Chords & Tabs

 

Where The Street Have No Name Chords & Tabs

U2 Chords & Tabs

Version: 1 Type: Tab 0 ratings
1 star 2 stars 3 stars 4 stars 5 stars
comments

Where The Street Have No Name Tab

   
Where the street have no name
U2
Tabbed by: Mariano Arnaiz
Anything to: marianoarnaiz@hotmail.com

Note: the main technic for this song is to play the chords in the highr way posible,
the stings with palm-mute and to change the chords for time to time as the voice change.

Pre-drums-intro (ELECRIC PIANO)
e-12-----------12----12----------|
B------7------------------7------|
G----------7-------------------7-|
D--------------------------------|
A--------------------------------|
E--------------------------------|

Guitar intro
e-10--------------------10-----|
B-----10-------------10---(10)-| (play a lot of times until you here the guitar
G---------11h12-11-12----------|  playing some king of chords)
D------------------------------|
A------------------------------|
E------------------------------|

e-10-10----10-10----10-10-10-|
B-10-10----10-10----10-10-10-| (play until the verse starts)
G-12-12p11-11-11h12-12-12-12-|
D-12-12----12-12----12-12-12-|
A----------------------------|
E----------------------------|

Verse 1 & Verse 2
I wanna run, I want to hide, I wanna tear down the walls that hold me
I wanna feel, sunlight on my face, See that dust cloud disappear without a
e-------10-(x-x-x-x--x-x-x-x-x-x-x-x-x-x-x-x-x-x-x-x-x-x-x-x-x-x-x-x)-|
B-------10-(x-x-x-x--x-x-x-x-x-x-x-x-x-x-x-x-x-x-x-x-x-x-x-x-x-x-x-x)-|
G-------11-(x-x-x-x--x-x-x-x-x-x-x-x-x-x-x-x-x-x-x-x-x-x-x-x-x-x-x-x)-|
D-------12-(x-x-x-x--x-x-x-x-x-x-x-x-x-x-x-x-x-x-x-x-x-x-x-x-x-x-x-x)-|
A----------(x-x-x-x--x-x-x-x-x-x-x-x-x-x-x-x-x-x-x-x-x-x-x-x-x-x-x-x)-|
E----------(x-x-x-x--x-x-x-x-x-x-x-x-x-x-x-x-x-x-x-x-x-x-x-x-x-x-x-x)-|

  Incide, I wanna reach...out and touch the.......flame
  Trace,  I wanna take.-..shelter from the poison rain
e-10---(x-x-x-x--x-x-x-x-)-10-(x-x-x-x-x-x-x-x-x)-9--|
B-8----(x-x-x-x--x-x-x-x-)-12-(x-x-x-x-x-x-x-x-x)-10-|
G-7----(x-x-x-x--x-x-x-x-)-11-(x-x-x-x-x-x-x-x-x)-9--|
D-7----(x-x-x-x--x-x-x-x-)-9--(x-x-x-x-x-x-x-x-x)-7--|
A------(x-x-x-x--x-x-x-x-)-x--(x-x-x-x-x-x-x-x-x)----|
E------(x-x-x-x--x-x-x-x-)-x--(x-x-x-x-x-x-x-x-x)----|

     Where the streets have no name. Ha, ha all right.
     Where the streets have no name, ho
e-(x-x-x-x-x)--12-12-12-12-12-12-12.....................-|
B-(x-x-x-x-x)--15-15-15-15-15-15-15.....................-|
G-(x-x-x-x-x)--14-14-14-14-14-14-14.keep on playing this-|
D-(x-x-x-x-x)--12-12-12-12-12-12-12.....................-|
A-(x-x-x-x-x)--------------------------------------------|
E-(x-x-x-x-x)--------------------------------------------|

Chorus

  Where the streets have no  name
E-10-10-10-10-10-10-10-10-10-10-10---10-10-|
B-10-10-10-10-10-10-10-10-10-10-10---10-10-|  x2
D-11-11-11-11-11-11-11-11-11-11-12---11-9--|
G-11-11-11-11-11-11-11-11-11-11------------|
A-x----------------------------------------|
E-x----------------------------------------|

  We're still building then  burning down love, burning down love
e-10-10-10-10-10-10-10-10-10-10-8----7----7-----10-8----7----7---|
B-10-10-10-10-10-10-10-10-10-8--8----8----8-----8--8----8----8---|
G-11-11-11-11-11-11-11-11-11-7--7----7----7-----7--7----7----7---|
D-12-12-12-12-12-12-12-12-12-------------------------------------|
A----------------------------------------------------------------|
E----------------------------------------------------------------|

  And when I  go there, I go there with  you, It's all I can
e-7-7-7-7-7-7-12-12-12-12-12-12-12-12-12-9--9--9--9--9--9--9--|
B-8-8-8-8-8-8-10-10-10-10-10-10-10-10-10-10-10-10-10-10-10-10-|
G-7-7-7-7-7-7-11-11-11-11-11-11-11-11-11-9--9--9--9--9--9--9--|
D-------------------------------------------------------------|
A-------------------------------------------------------------|
E-------------------------------------------------------------|

  do
e-10-10---10----10-----play these last tow until-|
B-10-10---10----10-----the verse 3 starts--------|
G-11-11--11h12-12p11----------------------------|
D-12-12------------------------------------------|
A------------------------------------------------|
E------------------------------------------------|

Verse 3: this verse is play with the same patrono f the firt two but insted of playing
chords you have to pick notes and then play the palm-mute, if you preffer only play the palm-mute
[ Tab from: http://www.guitartabs.cc/tabs/u/u2/where_the_street_have_no_name_tab.html ]
The city's a flood, and our ... to rust, We're ... by the wind, trampled in
e----------------10-(x-x-x-x-x-x-x-x-x-x-x-x-x-x-x-x-x-x-x-x-x-x-x-x-x-x-x-x)-|
B---------------10--(x-x-x-x-x-x-x-x-x-x-x-x-x-x-x-x-x-x-x-x-x-x-x-x-x-x-x-x)-|
G------------11-----(x-x-x-x-x-x-x-x-x-x-x-x-x-x-x-x-x-x-x-x-x-x-x-x-x-x-x-x)-|
D------------12-----(x-x-x-x-x-x-x-x-x-x-x-x-x-x-x-x-x-x-x-x-x-x-x-x-x-x-x-x)-|
A-------------------(x-x-x-x-x-x-x-x-x-x-x-x-x-x-x-x-x-x-x-x-x-x-x-x-x-x-x-x)-|
E-------------------(x-x-x-x-x-x-x-x-x-x-x-x-x-x-x-x-x-x-x-x-x-x-x-x-x-x-x-x)-|

  Dust, I'll show you a ....place high on a...........desert plain
e-----10(x-x-x-x--x-x-x-x-)-----10-(x-x-x-x-x-x-x-x-x)----9--|
B---8---(x-x-x-x--x-x-x-x-)---12---(x-x-x-x-x-x-x-x-x)--10---|
G-7-----(x-x-x-x--x-x-x-x-)-11-----(x-x-x-x-x-x-x-x-x)9------|
D-7-----(x-x-x-x--x-x-x-x-)-9------(x-x--x-x-x-x-x-x)-7------|
A-------(x-x-x-x--x-x-x-x-)--------(x-x-x-x-x-x-x-x-x)-------|
E-------(x-x-x-x--x-x-x-x-)--------(x-x-x-x-x-x-x-x-x)-------|

e-(x-x-x-x-x)--12-12-12-12-12-12-12.....................-|
B-(x-x-x-x-x)--15-15-15-15-15-15-15.....................-|
G-(x-x-x-x-x)--14-14-14-14-14-14-14.keep on playing this-|
D-(x-x-x-x-x)--12-12-12-12-12-12-12.....................-|
A-(x-x-x-x-x)--------------------------------------------|
E-(x-x-x-x-x)--------------------------------------------|

Chorus (repeat as the one above)


Bridge

  Our love turns to rust, We're beaten and
e------10-10-10-10-10-10-10-10-10-10-10-10-|
B------10-10-10-10-10-10-10-10-10-10-10-10-|
G------11-11-11-11-11-11-11-11-11-11-11-11-|
D------12-12-12-12-12-12-12-12-12-12-12-12-|
A------------------------------------------|
E------------------------------------------|

  blown by the wind, Blown by the wind. Oh and I
e-10----10-8---7-----10----10-8---7----7-7-7-7-7-|
B-8-----8--8---8-----8-----8--8---8----8-8-8-8-8-|
G-7-----7--7---7-----7-----7--7---7----7-7-7-7-7-|
D-7-----7--7---7-----7-----7--7---7----7-7-7-7-7-|
A------------------------------------------------|
E------------------------------------------------|

  see love, see our love turn to rust, And we're beaten and
e-10-10-10-10-10-10-10-10-10-10-10-10-10-10-10-10-10-10-10---|
B-10-10-10-10-10-10-10-10-10-10-10-10-10-10-10-10-10-10-10---|
G-11-11-11-11-11-11-11-11-11-11-11-11-11-11-11-11-11-11-11---|
D-12-12-12-12-12-12-12-12-12-12-12-12-12-12-12-12-12-12-12---|
A------------------------------------------------------------|
E------------------------------------------------------------|


  blown by the wind, blown by the wind, Oh when I
e-10----10-8---7-----10----10-8---7----7-7-7-7-7-|
B-8-----8--8---8-----8-----8--8---8----8-8-8-8-8-|
G-7-----7--7---7-----7-----7--7---7----7-7-7-7-7-|
D-7-----7--7---7-----7-----7--7---7----7-7-7-7-7-|
A------------------------------------------------|
E------------------------------------------------|

  go there, I go there with you, it's all I can do
e-10-10-10-10-10-10-10-9--9--9--9--9--9--9--9---10-10-10-10-10-----|
B-12-12-12-12-12-12-12-10-10-10-10-10-10-10-10--10-10-10-10-10...--|
G-11-11-11-11-11-11-11-9--9--9--9--9--9--9--9---11-11-12-11-12-----|
D------------------------------------------------------------------|
A------------------------------------------------------------------|
E------------------------------------------------------------------|

Outro

e-10--------------------10-----------------------------------|
B-----10-------------10---(10--------------------------------|
G---------11h12-11-12----------------------------------------|
D------------------------------------------------------------|
A------------------------------------------------------------|
E------------------------------------------------------------|
(play a lot of times until the song ends)
But the las few times it's play like this

e--10-------------10---------------------10----------------|
B-------10--------------10-----------------------10--------|
G-------------12----------------12----------------------12-|
D----------------------------------------------------------|
A----------------------------------------------------------|
E----------------------------------------------------------|

e--10-------------10---------------------10----------------|
B-------10--------------10-----------------------10--------|
G-------------11----------------11----------------------11-|
D----------------------------------------------------------|
A----------------------------------------------------------|
E----------------------------------------------------------|
Comments