U2 - Walk On Chords & Tabs

 

Walk On Chords & Tabs

U2 Chords & Tabs

Version: 4 Type: Tab 0 ratings
1 star 2 stars 3 stars 4 stars 5 stars
comments

Walk On Tab

   
Walk On (live)


Tab by Filippo Donati (u2sound.it ML)

Delay about 440-445

This is the version of Torino(and Boston) concert:


Dm, C, G,

(I think that it’s played with synthetizer and Edge play only chord)

         D                   A
e--------12------------------------12--------------
B----------------10-----------------------10-------
G---11----------------------11---------------------


        G                   Em
e--------12------------------------12--------------
B----------------10-----------------------10-------
G---11----------------------11---------------------

Ecc……


e----2---2--0--2--3--3--2--0--3---
B----3---3--3--3--3--3--3--3--3---
G----2---2--2--3--0--0--2--2--2---
D---------------------------------

e---------------0---------------0----------------------0-----
B-------3----------3------2------------2--------3--------3---
G-----------2----------------2-----------------------0-------
D----0------------------2------------------------------------
A--------------------0---------------------------------------
E------------------------------------------3-----------------

e----------------0-----------
B----------0--------0--------
G-------------0--------0-----   and repeat
D----------------------------
A----------------------------
E----2---0-------------------

But I have listen the Boston version and it’s different:

e----3------------------0---------------3---------------
B----2------------------2---------------3---------------
G----3------6—-7--6-----2----9--11--9---0----6--7--7----
D----0------------------2---------------0---------------

e----0------------------------
B----0------------------------   2 times
G----0------9—-11--9----------
D----2------------------------

After 

Replay chord

And then replay the last reef

Now there is the solo





e--------------------------------0----0-----------------------------
B---7---s8--8---s10---10---s12---12---12---------15p14----12---14---
G-------------------------------------------------------------------
D-------------------------------------------------------------------
[ Tab from: http://www.guitartabs.cc/tabs/u/u2/walk_on_tab_ver_4.html ]
e-------------------------------------------------------------------
B---12h14p12---10----8h10p8---7---5---5---s7---7--------------------
G-------------------------------------------------------------------
D-------------------------------------------------------------------

e----------------------------0----0---------------------------------
B---7---s8--8---s10---10---s12---12---s15---14----10----7----s10----
G-------------------------------------------------------------------
D-------------------------------------------------------------------

e-------------------------------------------------------------------
B---12---b14r--12---10---10---10---b14r---12---14---14---14---b14r--
G-------------------------------------------------------------------
D-------------------------------------------------------------------

e------------------------------------------------------------------
B---12---10----7----5---7---5---3---5---s7---5---3-----3-----------
G------------------------------------------------------------------
D------------------------------------------------------------------


Now there are difference between Torino and Boston:

Torino:

e--------5--------5-------5-------5-------5--------5-------
B----3-------3--------3-------2-------2-------2------------
G----------------------------------------------------

e--------3-------3------3--------3--------3-----
B----3-------3------3-------3--------3---------- and repeat
G-----------------------------------------------

Boston:

G--------------------------------------------------
D--12--12--12--11-11-11---5--5--5--5--5--5--5------
A--------------------------------------------------
E--10--10--10---9--9--9---3--3--3--3--3--2--3------

And then change the chord in Em,G,D,A


e------------------------------------
B---------5---5---s7-----------------       x2
G---2h4----------------7---7---7-----
D------------------------------------

e---------------------------------------------------------------------
B---------5---5---s7--------------------------------------------------       
G---2h4----------------7---7---7----7---7----6--6----4--4----2---2----
D---------------------------------------------------------------------

Hallelujah , Hallelujah , Hallelujah 
Hallelujah , Hallelujah , Hallelujah 
Hallelujah , Hallelujah , Hallelujah ……………………


For any question comment or correcton send me at:

Filippou2@libero.it
Comments