U2 - Walk On Chords & Tabs

 

Walk On Chords & Tabs

U2 Chords & Tabs

Version: 3 Type: Tab 0 ratings
1 star 2 stars 3 stars 4 stars 5 stars
comments

Walk On Tab

   
Artist: U2
Song: Walk On
Album: All That You Can't Leave Behind
Transcribed by: Stephanie van der Linde


Chords

A (002220)
D (000232)
E (022100)
G (320003)
Dm (000231) 
Am (002210)
Em (022000)




Dm            Am                       Am    Em
    And love   is not the easy thing
                             Em
The only baggage that you can bring
Dm                                         Am
And love is not the easy thing
                                           Em
The only baggage you can bring
Em
Is all that you can't leave behind



(This lead riff is played throughout most of the song with slight variations.  It still sounds okay as is)

|-------------------------12------------------------|
|---------10------------------10--------------------|
|--------------11-----------------------------------|
|----12------------12-------------------------------|
|---------------------------------------------------|
|---------------------------------------------------| 


Riff 1 + acoustic strumming

D     A     G     E


  (Acoustic guitar strums chords)


     D                              E                            G                              D
|--------------------------------------------------------------------------------------------------------------- |
|--------------------------------------------------------------------------------------------------------------- |
|----------------------------------------------------------------------------------------------------------------|
|---------7---------------------------7-7--------7--9----------9-9--7-7---9---7---------------------------- |
|----9-------------------------------------9-9-----------------------------------------------------------------|
|----------------------------------------------------------------------------------------------------------------|



  E                                   G                                   D                     A                         G
|----------------------------------------------------------------------------------------------------------------|
|----------------------------------------------------------------------------------------------------------------|
|----------------------------------------------------------------------------------------------------------------|
|---------7-------5--4--4--4--4\ 2--2--0--0----------4 / 6 --7--------------------7--7--7--7/ 9--9-------|
|---- 9----------------------------------------------------------------------------------------------------------|
|----------------------------------------------------------------------------------------------------------------|

   E                                   D                       E        A
|----------------------------------------------------------------------------------------------------------------|
|----------------------------------------------------------------------------------------------------------------|
|----------------------------------------------------------------------------------------------------------------|
|--------9--9---7--7---9--------7------------------7--------9----7--7h 9----7--------------------------- --|
|-------------------------------------------------9-------------------------------------------------------------|
|----------------------------------------------------------------------------------------------------------------|




Riff 1 + acoustic strumming

D     A     G     E


Exactly the same as Verse 1

     D                              E                            G                              D
|--------------------------------------------------------------------------------------------------------------- |
|--------------------------------------------------------------------------------------------------------------- |
|----------------------------------------------------------------------------------------------------------------|
|---------7---------------------------7-7--------7--9----------9-9--7-7---9---7-------------------------- - |
|----9-------------------------------------9-9---------------------------------------------------------------- -|
|----------------------------------------------------------------------------------------------------------------|

  E                                   G                                   D                     A                         G
|----------------------------------------------------------------------------------------------------------------|
|----------------------------------------------------------------------------------------------------------------|
|----------------------------------------------------------------------------------------------------------------|
|---------7-------5--4--4--4--4\ 2--2--0--0----------4 / 6 --7--------------------7--7--7--7/ 9--9-------|
|---- 9----------------------------------------------------------------------------------------------------------|
|----------------------------------------------------------------------------------------------------------------|

   E                                   D                       E         A
|----------------------------------------------------------------------------------------------------------------|
|----------------------------------------------------------------------------------------------------------------|
|----------------------------------------------------------------------------------------------------------------|
|--------9--9---7--7---9--------7------------------7--------9----7--7h 9----7------------------------------|
|-------------------------------------------------9-------------------------------------------------------------|
|----------------------------------------------------------------------------------------------------------------|


Riff 1 + acoustic strumming

D     A     G     E

  (I know it aches...)

Riff 1 + acoustic strumming
D     A     E


Acoustic chords:

D     A     G     E
D     A     G     A
                    


|----------------------------------------------------------------------------------------------------------------|              
|----7/-8 -- 8/ 10--10/ 12---12--12-----------15--14--12---12h14---12h14p12---10-----------------|
|----------------------------------------------------------------------------------------------------------------|
|----------------------------------------------------------------------------------------------------------------|
|----------------------------------------------------------------------------------------------------------------|
|----------------------------------------------------------------------------------------------------------------|


|----------------------------------------------------------------------------------------------------------------|              
|----8h10p8---7\ 5--5/7----7-----7/8 - 8/10 -- 10/ 12---12--12------15 -- 14\ 10---------------------|
|----------------------------------------------------------------------------------------------------------------|
|----------------------------------------------------------------------------------------------------------------|
|----------------------------------------------------------------------------------------------------------------|
|----------------------------------------------------------------------------------------------------------------|

[ Tab from: http://www.guitartabs.cc/tabs/u/u2/walk_on_tab_ver_3.html ]
|----------------------------------------------------------------------------------------------------------------|              
|----10\ 7---7/ 10---10/14--14b15r14---12---10-10-10---14b15r14---12---14--14--14-------------|
|----------------------------------------------------------------------------------------------------------------|
|----------------------------------------------------------------------------------------------------------------|
|----------------------------------------------------------------------------------------------------------------|
|----------------------------------------------------------------------------------------------------------------|


|----------------------------------------------------------------------------------------------------------------|              
|----14b15r14----12\10---10\7-----5h7p5-------5h7p5--------------------------------------------------|
|----------------------------------------------------7--------------7-------------------------------------------|
|----------------------------------------------------------------------------------------------------------------|
|----------------------------------------------------------------------------------------------------------------|
|----------------------------------------------------------------------------------------------------------------|


 (Home...hard to know what it is...)
Riff 1 + acoustic strumming

D     E     G


Riff 1 + acoustic strumming

D     A     G


(This lead riff is played throughout the outro)

|----------------------------------------------------------------------------------------------------------------|
|-----5--5--7-----------------------------5-5---7-------5--5--7----------------------------------------------|
|--------------7-7 --7- -4h7-----------------------7--------------7-7-7-7---7\6----6\4-----4\2----2- ----|
|----------------------------------------------------------------------------------------------------------------|
|----------------------------------------------------------------------------------------------------------------|
|----------------------------------------------------------------------------------------------------------------|






|----------------------------------------------------------------------------------------------------------------|
|-----5--5--7-------------------------------5-5--7---------5--5--7-------------------------------------------|
|----------------7--7---7---4h7----------------------7---------------7-7-7-7---7\6---6/7---7/9---9-------|
|----------------------------------------------------------------------------------------------------------------|
|----------------------------------------------------------------------------------------------------------------|
|----------------------------------------------------------------------------------------------------------------|


  (Repeat and fade)
Riff 2 + acoustic strumming

D      A     Em     A


And there it is!  This is a great song from U2 and pretty fun to play.  It might not be a very good tab as this is my first shot at writing tabs.  If you have any comments, suggestions, or even insults, send them to stephgurl2000@hotmail.com.  To make it a bit easier for people playing the acoustic sections, I've written them along with the lyrics.  Have fun!




Dm            Am                       Am    Em
    And love   is not the easy thing
                             Em
The only baggage that you can bring
Dm                                         Am
And love is not the easy thing
                                           Em
The only baggage you can bring
Em
Is all that you can't leave behind



D     A     G     E




D                  E                     G                               
   And if the darkness is to keep, us a-part...
D                   E                         G                                   
   And if the daylight feels like it's, a long way, off...
D                     A                             G
    And if your glass heart should crack
                      E                                                 
And for a second you turn back
D             E             A
    Oh no         Be strong             oh...oh....








         D                  A
Walk on      Walk on
                   G                              
What you got they can't steal it

         E
No they can't even feel it
       D                           A
Walk on           Walk on
G                       E
   Stay safe tonight




D                              E                     G 
   You're packing a suitcase for a place, none of us has been...
D                         E                       G
   A place that has to be believed,    to be, seen
D                             A
   You could have flown away
       G                      E
A singing bird, in an open cage
              D                E               A
Who will, only fly,    only fly, for freedom    Oh...oh....



          D                      A
Walk on           Walk on
                     G
What you've got they can't deny it
            E
Can't sell it, or buy it
           D                         A
Walk on              Walk on....
G                            E
    You stay safe tonight




             D                              A
And I know it aches, and your, heart it breaks
                       E
And you can only take so much


D               A             G           E
   Walk.... On......
D               A             G            A
    Walk....      On.....
 


D        E                 G
Home.......Hard to know what that is,  if you've never had one
D        E                G
Home.......I can't say where it is,    but I know I'm going

D      E                                   G
Home........That's where the hurt is



             D                              A
And I know it aches, and your, heart it breaks
                       E
And you can only take so much



             D       A         E            A
Walk on                      Hooooo........
                        D          A                                                G           E
Leave it behind                 You've got to leave it behind


                   D                             A
All that you fashion, all that you make
                   G                         E
All that you build, all that you break
                   D                                A            
All that you measure,  all that you feel
                    G                       A
All this you can,  leave  behind
                  D                               A
All that you reason,  needs only time
                  G                 E
All that I'm feelin on my mind
                    D                             A
All that you sense,   All that you scheme
                     G                            E
All you dress up and all that you seem  






Comments