U2 - Wake Up Dead Man Chords & Tabs

 

Wake Up Dead Man Chords & Tabs

U2 Chords & Tabs

Version: 1 Type: Tab 0 ratings
1 star 2 stars 3 stars 4 stars 5 stars
comments

Wake Up Dead Man Tab

   
--------------------------------------------------------------------------
			     WAKE UP DEAD MAN - U2
--------------------------------------------------------------------------
Tabbed by: Frank
Email: frankmagnussen@hotmail.com

Tuning: standard

Here is the version of "Wake up dead man" from the Slane Castle DVD. It's played in a 
key (e-minor) than on the Pop-album.
I've only tabbed the first verse and chorus here, since the rest of the song is played 
same way. On the Slane version they only play the first two verses and choruses, but the 
here can of course be used to play the entire song. It should be 100% correct.

Note the difference between a-minor in the verse and A-major in the chorus. Watch the 
for timing and strumming patterns. Also, note that the song is NOT tuned down half a step 
is usual when U2 play live.

Verses:
   Em                               D
e|------0-------0-------0--------0-----2--------2-------2---------2--|
B|------0-------0-------0--------0-----3--------3-------3---------3--|
G|-------------------------------------------------------------------|
D|----------------------------------0------0-0-----0-0-----0-0-0-----|
A|-------------------------------------------------------------------|
E|---0-----0-0-----0-0-----0-0-0-------------------------------------|

    Jesus..................Jesus....help me.....etc.
[ Tab from: http://www.guitartabs.cc/tabs/u/u2/wake_up_dead_man_tab.html ]
    C              Am
e|-----0--------------------0----------------3-----------------------|
B|-----1----------------1-----1---0------3-----3---3-----------------|
G|--------------------2---2-----2------0---0-----0-------------------|
D|-------------------------------------------------------------------|
A|--3-----3-3-3-2--0-------------------------------------------------|
E|-----------------------------------3-------------------------------|


    D
e|----------2h3------------------------------------------------------|
B|-------3------3---3------------------------------------------------|
G|-----2----------2--------------------------------------------------|
D|--0----------------------------------------------------------------|
A|-------------------------------------------------------------------|
E|-------------------------------------------------------------------|


Repeat this pattern once for the second line of the verse, then to chorus:


Chorus:

   Em        ^ ^               D                A
e|-----0-----0-0----0-------0----------3-2--------------------------|
B|-----0-----0-0----0-------0------3-------3--------2---3-2-0-------|
G|-------------------------------2---2-------2----2---2-------2-----|
D|-----------------------------0------------------------------------|
A|---------------------------------------------0--------------------|
E|--0----0-0----------0-0-------------------------------------------|

  Wake up...etc

Repeat once and end on Em
Comments