U2 - Vertigo Chords & Tabs

 

Vertigo Chords & Tabs

U2 Chords & Tabs

Version: 1 Type: Tab 5 ratings
1 star 2 stars 3 stars 4 stars 5 stars
comments

Vertigo Tab

Vertigo 

Music by U2

Tabbed by Eric Danielson (edaniels73@hotmail.com) 9-25-04

This is my first tab... not perfect, but enough to get you started.

I play this one with Drop D tuning.
 
Listen to the song to get a feel for the strumming...

The majority of the song is simply these riffs played in a simple pattern.

It's easy to figure out once you get the tuning, and these basic riffs figured out.



e--------x------x-----x-x-----------
B--------x------x-----x-x-----------
G--------x------x-----x-x-----------   RPT...
D--------x------x-----x-x----------
A--------x------x-----x-x-----------
D--------x------x-----x-x-----------


Riff 1
[ Tab from: http://www.guitartabs.cc/tabs/u/u2/vertigo_tab.html ]
e--------------------------------------------
B--------------------------------------------
G------x-/-x---x-/-x---x-/-x-----------------
D------7-/-9---7-/-9---7-/-9----------------- RPT...
A------5-/-7---5-/-7---5-/-7---7-7-7-7-5-4-0--
D------------------------------7-7-7-7-5-4-0--



Riff 2 

Listen for the strumming

e------------------------------
B------------------------------
G------9-/-7-------------------
D------9-/-7----5-/-7---------- RPT 1X then back to Riff 1
A------7-/-5----5-/-7----------
D---------------5-/-7----------


Single notes (harmonics??)


e-----12-------------------------
B--------12--15---12-15-12-------
G------------------------------   RPT... then back to Riff 1/Riff 2 bit...
D-----------------------------
A------------------------------
D------------------------------


Then there's a break that's got some serious AC/DC feel to it...


e------------------------------
B-------9---7---9-----------------
G-------9---7---9----------------   
D-------9---7---9----------------
A-------7---5---7-----------------
D------------------------------

You're on your own for the rest...




Comments