U2 - Vertigo Chords & Tabs

 

Vertigo Chords & Tabs

U2 Chords & Tabs

Version: 3 Type: Bass Tab 0 ratings
1 star 2 stars 3 stars 4 stars 5 stars
comments

Vertigo Bass Tab

   
-------------------------------------------------------------------------------
			     VERTIGO - U2
-------------------------------------------------------------------------------
I broke this song up into riffs and then put the riffs into place.
Tuning:Standard
  
Riff One
G|---------------------------------------------------------------------------|
D|---------------------------------------------------------------------------|
A|5h7-7-5h7-7-5-------------5h7-7-5h7-7-5-12-12-12-12-11-10------------------|
E|-------------0-5-5-5-5-4-3-------------0-----------------------------------|
  Riff Two
G|---------------------------------------------------------------------------|
D|---------------------------------------------------------------------------|
A|7-7-7-7-7-7-7-7-5-5-5-5-5-5-5----------------------------------------------|
E|-----------------------------3-3-3-3-3-3-3-3-5-5-5-5-5-5-5-----------------|
  Riff Three
G|---------------------------------------------------------------------------|
D|---------------------------------------------------------------------------|
A|5h7-7-5h7-7-5-12-12-12-12-11-10-5h7-7-5h7-7-5-12-12-12-12-11-10------------|
E|-------------0-------------------------------0-----------------------------|
  Riff Four
G|---------------------------------------------------------------------------|
D|---------------------------------------------------------------------------|
A|5h7-7-5h7-7-5-------------5h7-7-5h7-7-5------------------------------------|
E|-------------0-5-5-5-5-4-3-------------0-5-5-5-5-5-------------------------|
  Riff Five
G|---------------------------------------------------------------------------|
D|---------------------------------------------------------------------------|
A|12-12-12-12-12-12-12-12----------------------------------------------------|
E|---------------------------------------------------------------------------|
  Riff Six
G|---------------------------------------------------------------------------|
D|---------------------------------------------------------------------------|
A|5-7-5-7-5-7-5-5-7-5-7------------------------------------------------------|
E|---------------------5-5-5-5-----------------------------------------------|

Intro and Verse 1
Riff One 4x
Chorus 1
Riff Two 1x
Riff Three 1x
Verse 2
Riff One 4x
Chorus 2
Riff Two 1x
Riff Four 1x
Bridge
Riff Five 6x
Solo
Riff One 2x
Interlude
Riff Six 1x
Chorus 3
Riff Two 2x
Outro
Riff Three 2x

| /  slide up
| \  slide down
| h  hammer-on
| p  pull-off
| ~  vibrato
| +  harmonic
| x  Mute note
===============================================================================
[ Tab from: http://www.guitartabs.cc/tabs/u/u2/vertigo_btab_ver_3.html ]
Comments