U2 - Vertigo Chords & Tabs

 

Vertigo Chords & Tabs

U2 Chords & Tabs

Version: 2 Type: Bass Tab 0 ratings
1 star 2 stars 3 stars 4 stars 5 stars
comments

Vertigo Bass Tab

   
Drum Intro

Main riff: x2
G|-----------------------------------||-----------------------------------|
D|-----------------------------------||---------------------7-7-7-7-6-5---|
A|-5-7-7-5-7-7-5---------------------||-5-7-7-5-7-7-5---------------------|
E|---------------0-----5-5-5-5-4-3---||---------------0-------------------|

1st Verse: x2
G|-----------------------------------||-----------------------------------|
D|-----------------------------------||---------------------7-7-7-7-6-5---|
A|-5-7-7-5-7-7-5---------------------||-5-7-7-5-7-7-5---------------------|
E|---------------0-----5-5-5-5-4-3---||---------------0-------------------|

Chorus: x2
G|---------------------------------||---------------------------------|
D|---------------------------------||---------------------------------|
A|-7-7-7-7-7-7-7-7-/-5-5-5-5-5-5-5-||---------------------------------|
E|---------------------------------||-3-3-3-3-3-3-3-3-/-5-5-5-5-5-5-5-|

Main riff: x1
G|-----------------------------------||-----------------------------------|
D|-----------------------------------||---------------------7-7-7-7-6-5---|
A|-5-7-7-5-7-7-5---------------------||-5-7-7-5-7-7-5---------------------|
E|---------------0-----5-5-5-5-4-3---||---------------0-------------------|

2nd Verse: x4
G|-----------------------------------||-----------------------------------|
D|-----------------------------------||---------------------7-7-7-7-6-5---|
A|-5-7-7-5-7-7-5---------------------||-5-7-7-5-7-7-5---------------------|
E|---------------0-----5-5-5-5-4-3---||---------------0-------------------|
[ Tab from: http://www.guitartabs.cc/tabs/u/u2/vertigo_btab_ver_2.html ]
Chorus: x2
G|---------------------------------||---------------------------------|
D|---------------------------------||---------------------------------|
A|-7-7-7-7-7-7-7-7-/-5-5-5-5-5-5-5-||---------------------------------|
E|---------------------------------||-3-3-3-3-3-3-3-3-/-5-5-5-5-5-5-5-|

Bridge: x3
G|-----------------|
D|-7-7-7-7-7-7-7-7-|
A|-----------------|
E|-----------------|

Solo: x2
G|-----------------------------------||-----------------------------------|
D|-----------------------------------||---------------------7-7-7-7-6-5---|
A|-5-7-7-5-7-7-5---------------------||-5-7-7-5-7-7-5---------------------|
E|---------------0-----5-5-5-5-4-3---||---------------0-------------------|

Bridge 2: 
G|--------------------------------------------|
D|--------------------------------------------|
A|-5---7-7----5---7-5-7--5---7-7----5-7-5-4-3-|
E|--------------------------------------------|

G|--------------------------------------------|
D|--------------------------------------------|
A|-5---7-7----5---7-5-7--5---7-7-5------------|
E|--------------------------------------------|

Chorus: x4
G|---------------------------------||---------------------------------|
D|---------------------------------||---------------------------------|
A|-7-7-7-7-7-7-7-7-/-5-5-5-5-5-5-5-||---------------------------------|
E|---------------------------------||-3-3-3-3-3-3-3-3-/-5-5-5-5-5-5-5-|

Outro: x2
G|-----------------------------------||-----------------------------------|
D|-----------------------------------||---------------------7-7-7-7-6-5---|
A|-5-7-7-5-7-7-5---------------------||-5-7-7-5-7-7-5---------------------|
E|---------------0-----5-5-5-5-4-3---||---------------0-------------------|
Comments