U2 - Until The End Of The World Chords & Tabs

 

Until The End Of The World Chords & Tabs

U2 Chords & Tabs

Version: 1 Type: Tab 0 ratings
1 star 2 stars 3 stars 4 stars 5 stars
comments

Until The End Of The World Tab

   
This is my first tab so its not too good.Try it anyway.

INTRO (Main riff):
e-x-x-x-x-x-x-x-x-x-x|
b-x-x-x-x-x-x-x-x-x-x|
g-x-x-x-x-x-x-x-x-x-x| x4
d-x-x-x-x-x-x-x-x-x-x|
a-x-x-x-x-x-x-x-x-x-x|
e-0-0-0-0-0-0-0-0-0-0|

e------------------------|
b--9-9-9-9-9-9-9-10-10-10|
g--9-9-9-9-9-9-9--9--9--9|
d--9-9-9-9-9-9-9--9--9--9|x3
a--7-7-7-7-7-7-7--7--7--7|
e------------------------|

then play...
e-----------|
b-----------|
g-7--5--5---|
d-7--5--5---|
a-5--3--7---|
e-----------|

VERSE 1:
Do chords Bm, D and Emin arpeggio form.

PRE CHORUS:
e----2-------0-------0-------3-------2-------0--|
b--3--3----2--2----0--0----0--0----3--3----2--2-|
g---2--2----2--2----0--0----0--0----2--2----2--2|
d-0-------------------------------0-------------|
a---------0-------------------------------0-----|
e-----------------0-------3---------------------|

Now play main riff.

VERSE 2:
Do chords Bm, D and Em in arpeggio form, then play the pre chorus.

Now play the main riff again.
[ Tab from: http://www.guitartabs.cc/tabs/u/u2/until_the_end_of_the_world_tab.html ]
SOLO:
e-12-12-11-9------------------------------------12-12-11-9-------------|
b-----------12-9-10-9-10--------------9/8------------------12-9--------|
g------------------------9/11-11--9-11---9^-11^------------------9-9-11|
d-------------------------------11-------------------------------------|
a----------------------------------------------------------------------|
e----------------------------------------------------------------------|
continued......
e----------------------------------------------------------------------|
b---------9-7-9--9-7-9--10-9----7-7-7--9-7-9-9-7-9--12-----------------|
g-11-9-11--------------------9-9-9-9-----------------------------------|
d----------------------------------------------------------------------|
a----------------------------------------------------------------------|
e----------------------------------------------------------------------|

Now play main riff.

Part where Bono sings "la, la" and Verse 3:
Do chords Bm, D and Em in arpeggio form, then play the pre chorus.
Finally, play main riff.

Then at the end play:
e------------------------|
b-5---------7-5----------|
g---4-7-8-9--------------| Play this until end.
d------------------------|
a------------------------|
e------------------------|


GOOD LUCK!
Comments