U2 - Until The End Of The World Chords & Tabs

 

Until The End Of The World Chords & Tabs

U2 Chords & Tabs

Version: 1 Type: Bass Tab 0 ratings
1 star 2 stars 3 stars 4 stars 5 stars
comments

Until The End Of The World Bass Tab

   
U2 "Until the End of the World" - BASS TAB
------------------------------------------
steve palmer am560@freenet.carleton.ca

*regular tuning

Intro:
    E         E             E         E
|-----------|-------------|---------|---------------|
|:----------|-------------|---------|---------------|
|:--7-7--5--|-7-7------5--|-7-7--5--|-7-7------5----|
|-----------|------5-7----|---------|------5-7------|

( This riff is played whenever edge plays the main riff
of the song.)


Verse:
   Bm             D              Em             Em
|--------------|--------------|--------------|-----------------|
|:-------------|--------------|--------------|-----------------|
|:-2-2------0--|--5-5------3--|--7-7------5--|--7-7------5-----|
|-------0-2----|-------3-5----|-------5-7----|-------5-7-------|
 

   Bm             D              Em             Em
|--------------|--------------|--------------|-----------------|
|:-------------|--------------|--------------|-----------------|
|:-2-2------0--|--5-5------3--|--7-7------5--|--7-7------5-----|
|-------0-2----|-------3-5----|-------5-7----|-------5-7-------|


   D9             A9             Em             G/D
|--------------|--------------|--------------|-----------------|
|:-------------|--------------|--------------|--5-4------------|
|:-5-5--3-5-3--|-------5-3----|--------------|------5----------|
|--------------|--5-5------5--|--0---0----3--|-----------------|
[ Tab from: http://www.guitartabs.cc/tabs/u/u2/until_the_end_of_the_world_btab.html ]
   D9             A9             Em          Em
|--------------|--------------|-----------|--------------------|
|:-------------|--------------|-----------|--------------------|
|:-5-5--3-5-3--|--------------|--7-7--5---|--7-7------5--------|
|--------------|--5-5--3-5-3--|-----------|-------5-7----------|
				(back to main riff)


Repeat verse

Solo:

   G/D            D9             A9             A9
|--------------|--------------|--------------|------------------|
|:-------------|--------------|--------------|------------------|
|:----------3--|--5-5--3-5-3--|--------------|------------------|
|--3-3--1-3----|--------------|--5-5--0-2-3--|--5-5--0-2-3------|


   G/D            D9             A9             A9
|--------------|--------------|--------------|------------------|
|:-------------|--------------|--------------|------------------|
|:----------3--|--5-5--3-5-3--|--------------|------------------|
|--3-3--1-3----|--------------|--5-5--0-2-3--|--5-5--0-2-3------|


   G/D            D9             A9             A9
|--------------|--------------|--------------|------------------|
|:-------------|--------------|--------------|------------------|
|:----------3--|--5-5--3-5-3--|--------------|------------------|
|--3-3--1-3----|--------------|--5-5--0-2-3--|--5-5--0-2-3------|


   Bm             D              Em           Em
|--------------|--------------|------------|--------------------|
|:-------------|--------------|------------|--------------------|
|:-2-2------0--|--5-5------3--|--7-7--5----|--7-7------5--------|
|-------0-2----|-------3-5----|------------|-------5-7----------|


Repeat verse

Outro: (variation on main riff)

  E             E               E             E
|-------------|---------------|-------------|---------------|
|:------------|------9-7-5----|-------------|------9-7-5----|
|:7-7------5--|-7-7-----------|-7-7------5--|-7-7-----------|
|------5-7----|---------------|------5-7----|---------------|


Comments