U2 - The Ocean Chords & Tabs

 

The Ocean Chords & Tabs

U2 Chords & Tabs

Version: 2 Type: Bass Tab 0 ratings
1 star 2 stars 3 stars 4 stars 5 stars
comments

The Ocean Bass Tab

   
U2 "The Ocean" -BASS TAB
------------------------
steve palmer am560@freenet.carleton.ca

Tune down 1/2 step: Eb Ab Db Gb


Intro(verse):
[ Tab from: http://www.guitartabs.cc/tabs/u/u2/the_ocean_btab_ver_2.html ]
|-----------------------------------------0------0------0------0------|
|------2--------2--------2--------2-------0------0------0------0------|
|----2---2----2---2----2---2----2-------------------------------------|
|--0--------0--------0--------0--------3------3------3------3---------|

Solo:

|-----4-------4-------3-------3-------4-------4-------3-------3-------|
|---4---4---4---4---3---3---3---3---4---4---4---4---3---3---3---3-----|
|-2-------2-------1-------1-------2-------2-------1-------1-----------|
|---------------------------------------------------------------------|

Comments