U2 - The Ground Beneath Her Feet Chords & Tabs

 

The Ground Beneath Her Feet Chords & Tabs

U2 Chords & Tabs

Version: 1 Type: Tab 0 ratings
1 star 2 stars 3 stars 4 stars 5 stars
comments

The Ground Beneath Her Feet Tab

   
Artist: U2
Song: Ground beneath her feet

Tabbed by: Jason Pragash (JSammy85@aol.com)


Chords: Am	002210
	Em	022000
	F	133211
	G	320033
	G*	355433
	Fmaj7	003210

Intro:

e ----9-7-5-3-1--------9-7-9-----7-------9-7-9-----7-----|
b --------------3-1------------9---9-7-----------9---9-7-|
g ------------------3-------9----------9-------9---------|
d -------------------------------------------------------|
a -------------------------------------------------------|
e -------------------------------------------------------|

Am	Em    F         G
All my life, I worshiped her
Am	    Em     F          G
Her golden voice, her beauty's beat
Am               Em
How she made us feel
F		 G
How she made me real
F			   G*
And the ground beneath her feet
F			   G*
and the ground beneath her feet

e -9-7-9-----7---------9-7-9-----7----------------------|
b ---------9---9--7------------9---9-7------------------|
g -------9-----------9-------9--------------------------|
d ------------------------------------------------------|
a ------------------------------------------------------|
e ------------------------------------------------------|

Am                  Em        F       G
And now I can't be sure of anything
Am        Em       F         G
Black is white, and cold is heat
Am            Em         F        G
For what I worshipped, stole my love away
F			    G*
It was the ground beneath her feet
F			    G*
It was the ground beneath her feet

e --9----7----9-----------7----------------------------|
b -------------------9--------9----7-------------------|
g --------------9-----------------------9--------------|
    Go lightly down your darkened way,

e --9---7---9----------7-------------------------------|
b -----------------9--------9----7---------------------|
g -------------9---------------------------------------|
d -----------------------------------------------------|
a -----------------------------------------------------|
e -----------------------------------------------------|

    Go lightly underground

e --9----7----9-----------7----------------------------|
b -------------------9--------9----7-------------------|
g --------------9-----------------------9--------------|
d -----------------------------------------------------|
a -----------------------------------------------------|
e -----------------------------------------------------|

    I'll be there in another day,

e --9----7----9hold----11--9--11hold--11/12--11--9-7-5-|
b -----------------------------------------------------|
g -----------------------------------------------------|
d -----------------------------------------------------|
a -----------------------------------------------------|
e -----------------------------------------------------|

    I won't rest until your found

e -----9-7-5-3-1------------9-7-5--0--9-10-12----------|
b ---------------3-1---------------1-------------------|
g --0-----------------3--0---------2-------------------|
d --2--------------------2---------2-------------------|
a --2--------------------2---------0-------------------|
e --0--------------------0-----------------------------|
[ Tab from: http://www.guitartabs.cc/tabs/u/u2/the_ground_beneath_her_feet_tab.html ]
(Strum each chord once)
Am		   Em
Let me love you, let me rescue you
F		     	   G
Let me bring you to where two roads meet
Am		      Em
Oh come back above, where there is only love
F     G
Only love

Solo:
e -------------------------------|
b --9--7-7--9--7-7--9--10--9--7--|
g -------------------------------|
d -------------------------------|
a -------------------------------|
e -------------------------------|


e -------------------------------|
b --9--7-7--9--7-7--9--10--9-----|
g -------------------------------|
d -------------------------------|
a -------------------------------|
e -------------------------------|


Repeat above one more time than:

e ---------------------------------------------------------------|
b --10--10/12--12--12--12--10--9--7----7/10--10--10--10--9--7--5-|
g ---------------------------------------------------------------|
d ---------------------------------------------------------------|
a ---------------------------------------------------------------|
e ---------------------------------------------------------------|


e ------------------------------------------------------------------|
b --10/12--12--12--12--10--9--7----7/10--10--10--10--9--7--5--------|
g ------------------------------------------------------------------|
d ------------------------------------------------------------------|
a ------------------------------------------------------------------|
e ------------------------------------------------------------------|


After this you could play the rest of the solo out,
but I just play this little ditty for the five "My oh my ohhh my" parts:

e --3-3-3/4-4-4-4-4/5-5-5/7-7-7-7-7-----------------|
b --3-3-3/4-4-4-4-4/5-5-5/7-7-7-7-7-----------------|
g --4-4-4/5-5-5-5-5/6-6-6/8-8-8-8-8-----------------|
d --5-5-5/6-6-6-6-6/7-7-7/9-9-9-9-9-----------------|
a --5-5-5/6-6-6-6-6/7-7-7/9-9-9-9-9-----------------|
e --3-3-3/4-4-4-4-4/5-5-5/7-7-7-7-7-----------------|
    My oh    My,    My ohh, My

This can be played in anyway, as long as you move down the neck, find a way which
feels comfortable, and  sounds best on your guitar, I feel this gives more body to
the sound with one guitar...

The rest of the solo is in the background while the "My oh My" part is going on:

e ----------------------------------------------------------------|
b --12-12-12-10-10----12-12-12-10-10----12/14--14-14-14-12-12-----|
g ----------------------------------------------------------------|
d ----------------------------------------------------------------|
a ----------------------------------------------------------------|
e ----------------------------------------------------------------|


Continues...

e ----------------14-14-14-12-12--14-14-14-12-12--10-10-12-10-----------|
b -14-14-14-12-12--------------------------------------------12-10-10/7-|
g ----------------------------------------------------------------------|
d ----------------------------------------------------------------------|
a ----------------------------------------------------------------------|
e ----------------------------------------------------------------------|


Am              G      Fmaj7       Em
Let me love you true, let me rescue you
Let me bring you to where two roads meet
Let me love you true, let me rescue you
Let me bring you to where two roads meet

Am   G   Fmaj7 Em
My oh my, my oh my
My oh my, my oh my
My oh my, my oh my
Comments