U2 - The Fly Chords & Tabs

 

The Fly Chords & Tabs

U2 Chords & Tabs

Version: 1 Type: Tab 0 ratings
1 star 2 stars 3 stars 4 stars 5 stars
comments

The Fly Tab

   
U2-The Fly,Achtung Baby
Normal e,a,d,g,b,e tuning

Key:/slide down
    slide up
    (x) mute string
    (t) tremolo arm or shake to change the sound
     b bend
     h hammer on

Intro
E------------------------------------------------
B------------------------------------------------
G------------------------------------------------ 
D------------------------------------------------ 
A---7--5---5--7--5--7--5--7----------------------
E--------7---------------------------------------

Larry Kicks in, main verse
               
            

 
e-----------------------------------
B-----------------------------------
G----------------------------------- repeat all but slide
D-----------------------------------
A--------------7-7-7-7-7-7-7-5------
E—15/0-------------------------7----


U2BO-NOEDGELARRYADAM@groups.msn.com
U2BONOEDGELARRYADAM@groups.msn.com
Keep it going until Bono starts singing
It’s no secret…when she walks in the room…
e------------------
B---12(t)-14—12(t)
G---12(t)-14—12(t)
D------------------  
A------------------
E------------------
   
Rest of the verse
e-----------------------------------
B----------------------------------- repeat again all but the slide
e-----------------------------------
B-----------------------------------
G-----------------------------------
D-----------------------------------
A--------------7-7-7-7-7-7-7-5------
E—15/0-------------------------7----







Chorus, sounds pretty silent with Edge but if you want,hit this and let it ring 
                           
e------------------
B--11-------------- let ring
G------------------
D------------------  
A------------------
E------------------


Its no secret…

e----------------------------
B---12(t)-(x)(x)(x)(x)(x)14(t)  mute on 12 fret
G---12(t)-(x)(x)(x)(x)(x)14(t)
D----------------------------
A----------------------------
E----------------------------

Verse 2
e-------------------------------
B-------------------------------
G------------------------------- throughout verse
D-------------------------------
A--------------5----------------
E-(x)(x)(x)0-0------------------

Chorus

e------------------
B--11-------------- let ring
G------------------
D------------------  
A------------------
E------------------

Before Solo
e-------------------------------
B-------------------------------
G------------------------------- 
D-------------------------------
A--------------512-------------
E-(x)(x)(x)0-0------------------

Edge’s solo              
A------------------------------------------------------------
B-20-20-20-20-19-15-15-15-17-17-17-17/017-------------------
G------------------------------------------------------------
D------------------------------------------------------------
A------------------------------------------------------------
E------------------------------------------------------------





e---------------------------------------
b-20-20-20-20-19-15-15-15-12-12-12/012-
G---------------------------------------
D---------------------------------------
A---------------------------------------
E---------------------------------------
[ Tab from: http://www.guitartabs.cc/tabs/u/u2/the_fly_tab.html ]
e--------------------------------------------------------------
B-20-20-20-20-19-15-15-15-17---20-20-20-20-19-15-15-15-14-14-14
G--------------------------------------------------------------
D--------------------------------------------------------------
A--------------------------------------------------------------
E--------------------------------------------------------------

e---------------------------------------------------------------------
b-12-12-12-10-10-10-9-9-9-7-7-7-5-5-5-3-3-3-10-9-7-5-10-9-7-710-9-9
G---------------------------------------------------------------------
D---------------------------------------------------------------------
A---------------------------------------------------------------------
E---------------------------------------------------------------------

e---------------------------------------------------------------------
B-7-7-9-9-10-10-10-12-12-15-15-17-17-12b-14b---14-14-14-12-12-12-12-10
G---------------------------------------------------------------------
D---------------------------------------------------------------------
A---------------------------------------------------------------------
E---------------------------------------------------------------------

e---------------------------------------------------------------------
b-10-9-9-7-7-5-5-3-3-9-7-5-5-9-7-5-5-9-7-7-5-5-7-7-7-9-9-9-12-12-12-14
G---------------------------------------------------------------------
D---------------------------------------------------------------------
A---------------------------------------------------------------------
E---------------------------------------------------------------------

e------------------12-------------------12-----------------12---------
B-14-14-15-15-/9-9----10-9----------9-9—---10-9--------9-9----10-9
G--------------------------11-9-----------------11-9------------------
D---------------------------------------------------------------------
A---------------------------------------------------------------------
E---------------------------------------------------------------------

e----16----16---------------------------------------------------------
B-12----12----13-12---------9h12—9h12-9h12-9h12-----------------------
G-------------------14-12---------------------------------------------
D---------------------------------------------------------------------
A---------------------------------------------------------------------
E---------------------------------------------------------------------

e------------------------------
B------------------------------
G------------------------------ x6
D------------------------------
A--------------------10/0------
E-(x)(x)(x)(x)(x)-0-0----------

e-15-15-15-17-15-17-------------------
B------------------15-15-15-17-15-17--
G------------------------------------- repeat about 6 times
D-------------------------------------
A-------------------------------------
E-------------------------------------

e-17-17-17-19-19-17-15-12-15-12h15-----
B--------------------------------------
G--------------------------------------
D--------------------------------------
A--------------------------------------
E--------------------------------------

e------------------------------
B------------------------------
G------------------------------ Let fade out
D------------------------------
A---5--------------------------
E------------------------------






















First ever tab, not bad ha?

Hope you like it, have fun!!!!!

Questions, comments or suggestions email me at 
da_trippa_on_trance@hotmail.com






Comments