U2 - Sunday Bloody Sunday Chords & Tabs

 

Sunday Bloody Sunday Chords & Tabs

U2 Chords & Tabs

Version: 1 Type: Tab 1 rating
1 star 2 stars 3 stars 4 stars 5 stars
comments

Sunday Bloody Sunday Tab

   
Sunday Bloody Sunday - pearski 


the whole song goes basically bm d g in this way:

verse/intro
         bm      d         g
e:-------2--------2-------0--------
b:-----3---3----3---3---3---3-------
g:---4--------2-------0----------------
d:----------------------------------
a:---------------------------------
e:-------------------------------


chorus:

[ Tab from: http://www.guitartabs.cc/tabs/u/u2/sunday_bloody_sunday_tab.html ]
e:---------------------------------------
b:----------------------------------------
g:--------7--------------------------------
d:--9-----7-----5--------------------------
a:--9-----5-----5----------------------
e:--7-----------3-------------------


bridge:
 
   tonight...
e:---2----0------3-------------------------------
b:---3----0------3-------------------------------
g:---2----0------4-------------------------------
d:---0----2------5-------------------------------
a:--------2------5------------------------------
e:--------0------3------------------------------

Comments