U2 - Sunday Bloody Sunday Chords & Tabs

 

Sunday Bloody Sunday Chords & Tabs

U2 Chords & Tabs

Version: 1 Type: Chords 0 ratings
1 star 2 stars 3 stars 4 stars 5 stars
comments

Sunday Bloody Sunday Chords

   
          Artist: U2
          Song: Sunday Bloody Sunday
          tabbed by: Fox Hunt ironduke44@aol.com
          
          This one's cake and it sounds good. 
          I just went to the Chicago concert and watched
          The Edge and his work. He is my idol.
          
          chords:  Bm  D  G
          
          opening riff: (done using those chords)
          
          e------2---2---0---0------ repeat many times
          b-----3-3-3-3-3-3-3-3-----
          g----4---2---0---0--------
          d-------------------------
          a-------------------------
          E-------------------------
          
          then: D Em for "how long, how long must we sing this song . . ."
          
          Chorus: " Tonight . . ."
                 Bm         D         G
          e-----------------------------
          b-----------------------------
          g----------------7----------12
          d------9---------7----------12
          a------9---------5----------10
          E------7----------------------
          
          That's about all.  It's not hard so you can listen 
          and figure out the rhythm
[ Tab from: http://www.guitartabs.cc/tabs/u/u2/sunday_bloody_sunday_crd.html ]
Comments