U2 - Pride Chords & Tabs

 

Pride Chords & Tabs

U2 Chords & Tabs

Version: 2 Type: Bass Tab 0 ratings
1 star 2 stars 3 stars 4 stars 5 stars
comments

Pride Bass Tab

   
    From: viking@powerup.com.au (David Taylor)
    To: dwm3@po.cwru.edu
    Subject: bass tab: u2: pride(in the name of love)
    Date: Tue, 10 Dec
[ Tab from: http://www.guitartabs.cc/tabs/u/u2/pride_btab_ver_2.html ]
    
    U2 - "Pride(In the Name of Love)" - Bass Tab
    
    Intro:
    |-----------------------------------|
    |*---------------------------------*|
    |*-0-0-0-0-0-0-0-0-0-0-0-0-0-0-0-0-*| (x4)
    |-----------------------------------|
       1 e & a 2 e & a 3 e & a 4 e & a
    
    Verse & Chorus:
    |-------------------------|-----------------------|
    |-------------------------|-----------------------|
    |-2-2-2-2-2-2-2-2-2-2-2-2-|-----------------------|
    |-------------------------|-0-0-0-0-0-0-0-0-0-0-0-|
      1 & 2 e & 3 & a 4 e & a   1 & 2 & a 3 e & a 4 &
    
    |-------------------------|---------------------|(this rythm is
    |-------------------------|---------------------| only approx.
    |-------------------------|---------------------| rhythm is always 
    |-5-5-5-5-5-5-5-5-5-5-5-5-|-2-2-2-2-2-2-2-2-2-2-| changing)
      1 & 2 e & a 3 & a 4 e &   1 & 2 & 3 e & a 4 &
    
    Solo:
    |---------------------|---------------------------|
    |---------------------|---------------------------|
    |-2-2-2-0-1-2-0-2---2-|-5-5-5-3-4-5-5-3-5---5-5-5-|
    |---------------------|---------------------------|
      1 & 2 & a 3 & a 4 &   1 & 2 & a 3 e & a 4 e & a
    
    |---------------------|-----------------------|
    |-----2-0-1-2-0-1-2-2-|-----2-0-1-2-2-0-1-2---|
    |---------------------|---------------------0-|
    |-0-0-----------------|-0-0-------------------|
      1 & 2 & a 3 & a 4 &   1 & 2 & a 3 e & a 4 &
    
    By: Johari Taylor
    Email: viking@powerup.com.au
   
Comments