U2 - One Chords & Tabs

 

One Chords & Tabs

U2 Chords & Tabs

Version: 2 Type: Tab 0 ratings
1 star 2 stars 3 stars 4 stars 5 stars
comments

One Tab

U2 - "One" 

by: colorado25   

Intro:          
h=hammer on                
p=pull off               
/=slide up                
----------------------------------------------------------------------------
---------------h-p-h-----------h-p-h-----------h-p-h------------------------
---h---5--/9--7-9-7-9-------7-5-7-5-7---/7--9-7-9-7-9-7--------------h--p---
--5-7-------------------/7--7-5-7-5-7---/7--7-7-7-7-7-7---7/9---10--9-10-9--
-------0----------------/5--------------/8----------------8/10--10--10------
----------------------------------------------------------------------------

Outro:
|-12-12-------------------|-12-12-13-13-12-------|
|-------15-15-13-13-15----|----------------15-13-|
|-------------------------|----------------------|
|-------------------------|----------------------|
|-------------------------|----------------------|
|-------------------------|----------------------|



LYRICS:
[ Tab from: http://www.guitartabs.cc/tabs/u/u2/one_tab_ver_2.html ]
Is it getting better 
Or do you feel the same Am             
Will it make it easier on you
Now you got someone to blame
You say 
One love, one life 
When it's one need in the night
It's one love we get to share it  
It leaves you baby if you don't care for it       
Did I disappoint you
Or leave a bad taste in your mouth
You act like you never had love
And you want me to go without
Well it's too late tonight
To drag the past out into the light
We're one, but we're not the same
We get to carry each other, carry each other
One
[Solo]
Have you come here for forgiveness?
Have you come to raise the dead?
Have you come here to play Jesus
To the lepers in your head?
Did I ask too much, more than a lot
You gave me nothing, now it's all I got
We're one, but we're not the same
We hurt each other then we do it again
You say
Love is a temple, Love a higher law 
Love is a temple, Love the higher law    
You ask me to enter, but then you make me crawl                   
And I can't be holding on to what you got             
When all you got is hurt
One love, one blood
One life, you got to do what you should    
One life with each other
Sisters, brothers
One life, but we're not the same
We get to carry each other, carry each other
One. 
One.
Comments