U2 - One Chords & Tabs

 

One Chords & Tabs

U2 Chords & Tabs

Version: 1 Type: Tab 5 ratings
1 star 2 stars 3 stars 4 stars 5 stars
comments

One Tab

   
Song Title:One
Artrist:u2
Submitted by:Alex
Email me at:ank728@aol.com with suggestions and comments (suggestions)



Verse: Amin    Dsus2     Fmaj7     G
       Amin    Dsus2	   Fmaj7     G

Chorus: C  Amin   F    C
        C  Amin   F    C

Bridge:  C  Amin   C   Amin
         C  G      G   F
	 F  -> Chorus

[ Tab from: http://www.guitartabs.cc/tabs/u/u2/one_tab.html ]
Main Riff:
	   e:-------------------------------------------------------|
 	   a:-------------------------------------------------------|
	   d:---------------9--7--9--7--9--7------7--5--7--5--7--5--|
	   g:---5h7--------10-10-10-10-10-10------7--5--7--5--7--5--|
	   b:-------0-------------------------5---------------------|
	   e:-------------------------------------------------------|

	   e:-------------------------------------------------------|
	   a:------------------------------------------------------o|
	   d:-------9--7--9--7--9--9--------------------------------|
	   g:-------7--7--7--7--7--7--------10--9--10--9--10--9--10-|
    	   b:---8-----------------------10--10---------------------o|
	   e:-------------------------------------------------------|
       
Comments