U2 - Mysterious Ways Chords & Tabs

 

Mysterious Ways Chords & Tabs

U2 Chords & Tabs

Version: 2 Type: Tab 0 ratings
1 star 2 stars 3 stars 4 stars 5 stars
comments

Mysterious Ways Tab

MYSTERIOUS WAYS

Music by U2 - Lyrics by Bono & The Edge

(LIVE VERSION FROM POPMART TOUR - 1997)

Tune down your guitar 1/2 step.

1------x-x-x-x--------|
2------x-x-x-x--------|
3------x-x-x-x-----7--|
4--7\9-x-x-x-x-7\9--9-| x3
5------x-x-x-x--------|
6------x-x-x-x--------|

1--7-7---x-x-x-x-----|
2--7-7---x-x-x-x-----|
3--8-8---x-x-x-x-----|
4--9-9---x-x-x-x-7\9-| x4
5--9-9---x-x-x-x-----|
6--7-7---x-x-x-x-----|

piano parto

It's alright ... it's alright
She moves in mysterious ways
It's alright ... it's alright
She moves in mysterious ways

1--x-x--x--x-x-x--x-|
2--x-x--x--x-x-x--x-|
3--x-x--x--x-x-x--x-|
4--x-x--x--x-x-x--x-|
5--x-x--x--x-x-x--x-|
6--x-x--x--x-x-x--x-|

Johnny take a walk
With your sister the moon
Let her pale light in
To fill up your room
You've been living underground
Eating from a can
You've been running away
From what you don't understand
Love

1--7-7/----12-12/-----7-7/----12-12/-|
2--7-7/----12-12/-----7-7/----12-12/-|
3--8-8/----13-13/-----7-7/----12-12/-|
4--9-9/----14-14/-----9-9/----14-14/-|
5--9-9/----14-14/-----9-9/----14-14/-|
6--7-7/----12-14/-----7-7/----12-14/-|

She's slippy
She's sliding down
She's gonna be there
When you hit the ground


1--7-7-7-7--12-12-12-12---10-10-10-10--5-5-5-5-|
2--7-7-7-7--12-12-12-12---10-10-10-10--5-5-5-5-|
3--8-8-8-8--13-13-13-13---11-11-11-11--6-6-6-6-| x2
4--9-9-9-9--14-14-14-14---12-12-12-12--7-7-7-7-|
5--9-9-9-9--14-14-14-14---12-12-12-12--7-7-7-7-|
6--7-7-7-7--12-12-12-12---10-10-10-10--5-5-5-5-|

It's alright ... it's alright ... it's alright
She moves in mysterious ways
It's alright ... it's alright ... it's alright
She moves in mysterious ways

1--7-7---x-x-x-x-----|
2--7-7---x-x-x-x-----|
3--8-8---x-x-x-x-----|
4--9-9---x-x-x-x-7/9-| x4
5--9-9---x-x-x-x-----|
6--7-7---x-x-x-x-----|

Johnny take a dive
With your sister in the rain
Let her talk about the things
You can't explain

1-x-x-x-----------------------------|
2-x-x-x-----------------------------|
3-x-x-x-----------------------------|
4-x-x-x--9--9--9--7/9--9--9--9--7/9-|
5-x-x-x-----------------------------|
6-x-x-x-----------------------------|

To touch is to heal
To hurt is to steal
If you want to kiss the sky
Better learn how to kneel ... (on your knees boy!)

1--7-7/----12-12/-----7-7/----12-12/-|
2--7-7/----12-12/-----7-7/----12-12/-|
3--8-8/----13-13/-----7-7/----12-12/-|
4--9-9/----14-14/-----9-9/----14-14/-|
5--9-9/----14-14/-----9-9/----14-14/-|
6--7-7/----12-14/-----7-7/----12-14/-|

She's the wave
She turns the tide
She sees the man inside the child

1--7-7-7-7--12-12-12-12---10-10-10-10--5-5-5-5-|
2--7-7-7-7--12-12-12-12---10-10-10-10--5-5-5-5-|
3--8-8-8-8--13-13-13-13---11-11-11-11--6-6-6-6-| x3
4--9-9-9-9--14-14-14-14---12-12-12-12--7-7-7-7-|
5--9-9-9-9--14-14-14-14---12-12-12-12--7-7-7-7-|
6--7-7-7-7--12-12-12-12---10-10-10-10--5-5-5-5-|

It's alright ... it's alright ... it's alright
She moves in mysterious ways
It's alright ... it's alright ... it's alright
She moves in mysterious ways
It's alright ... it's alright
Lift my days ... light up my nights

1--2-2---x-x-x-x-----|
2--2-2---x-x-x-x-----|
3--2-2---x-x-x-x-----|
4--4-4---x-x-x-x-2/4-| x5
5--4-4---x-x-x-x-----|
6--2-2---x-x-x-x-----|

1--11-11-11-11---------------|
2--10-10-10-10-------10------|
3---------------9-11----11-9-|
4----------------------------|
5----------------------------|
6----------------------------|

1-11-11-11-11-12-11-9--|
2-10-10-10-10-10-10-10-|
3----------------------| x5
4----------------------|
5----------------------|
6----------------------|
[ Tab from: http://www.guitartabs.cc/tabs/u/u2/mysterious_ways_tab_ver_2.html ]
1--7-7--7\12-12--12/10-10--10/-5-5-5-5-5-5-5-5-|
2--7-7--7\12-12--12/10-10--10/-5-5-5-5-5-5-5-5-|
3--7-7--7\13-12--13/11-11--11/-6-6-6-6-6-6-6-6-|
4--9-9--9\14-12--14/12-12--12/-7-7-7-7-7-7-7-7-|
5--9-9--9\14-12--14/12-12--12/-7-7-7-7-7-7-7-7-|
6--7-7--7\12-12--14/10-10--10/-5-5-5-5-5-5-5-5-|

One day you'll look back
And you'll see
Where
You were held now

1--7-7-7-7--12-12-12-12---10-10-10-10--5-5-5-5-|
2--7-7-7-7--12-12-12-12---10-10-10-10--5-5-5-5-|
3--8-8-8-8--13-13-13-13---11-11-11-11--6-6-6-6-|
4--9-9-9-9--14-14-14-14---12-12-12-12--7-7-7-7-|
5--9-9-9-9--14-14-14-14---12-12-12-12--7-7-7-7-|
6--7-7-7-7--12-12-12-12---10-10-10-10--5-5-5-5-|

By this love
While
You could stand
There
And not move on this moment
Follow this feeling

1--7-7-7-7--12-12-12-12---10-10-10-10--5-5-5-5-|
2--7-7-7-7--12-12-12-12---10-10-10-10--5-5-5-5-|
3--8-8-8-8--13-13-13-13---11-11-11-11--6-6-6-6-| x2
4--9-9-9-9--14-14-14-14---12-12-12-12--7-7-7-7-|
5--9-9-9-9--14-14-14-14---12-12-12-12--7-7-7-7-|
6--7-7-7-7--12-12-12-12---10-10-10-10--5-5-5-5-|

It's alright ... it's alright ... it's alright
She moves in mysterious ways
It's alright ... it's alright ... it's alright
She moves in mysterious ways

1---------------------------------14----14--------------12----12------------7----7----|
2-------12----12---12----------17----17----17--------15----15----15------10---10---10-|
3----11----11---11----------16--------------------14-------------------9--------------|
4--9--------------------14---------------------12--------------------7----------------|
5-------------------------------------------------------------------------------------|
6-------------------------------------------------------------------------------------|

1--7-
2--7-
3--8-
4--9-
5--9-
6--7-

1-------------------------|
2-------------------------|
3-----------7/6-----------|
4--7\9----------------7\9-|
5-------------------------|
6-------------------------|

1-------------------------------------------------------------------|
2--5\19-19-19-19/17----19-19-19/17----19-19-19/17/15/14\15/14/12/10-|
3-------------------------------------------------------------------|
4-------------------------------------------------------------------|
5-------------------------------------------------------------------|
6-------------------------------------------------------------------|

1-----------------------------------------------19/17/16\17\19----19----19---19---19----|
2--10\19-19-19-19/17----19-19-19/17----19-19-19----------------19----19----19---19---19-|
3---------------------------------------------------------------------------------------|
4---------------------------------------------------------------------------------------|
5---------------------------------------------------------------------------------------|
6---------------------------------------------------------------------------------------|

1--21-19-17-16-17-16-14-12-10-12-10-------|
2-----------------------------------10-12-|
3-----------------------------------------|
4-----------------------------------------|
5-----------------------------------------|
6-----------------------------------------|

1---------------------------------14----14--------------12----12------------7----7----|
2-------12----12---12----------17----17----17--------15----15----15------10---10---10-|
3----11----11---11----------16--------------------14-------------------9--------------|
4--9--------------------14---------------------12--------------------7----------------| x6
5-------------------------------------------------------------------------------------|
6-------------------------------------------------------------------------------------|

It's alright ... it's alright ... it's alright
She moves in mysterious ways
It's alright ... it's alright ... it's alright
We move throgh miracle days
Spirit moves in mysterious ways
She moves with it
She moves with it
Lift my days ... light up my nights

1--7-
2--7-
3--8-
4--9-
5--9-
6--7-

zooman@exploit.it
Comments