U2 - Miracle Drug Chords & Tabs

 

Miracle Drug Chords & Tabs

U2 Chords & Tabs

Version: 3 Type: Tab 0 ratings
1 star 2 stars 3 stars 4 stars 5 stars
comments

Miracle Drug Tab

   
Miracle Drug
Album: How To Dismantle An Atomic Bomb (2004)

Tabber: Rakesh (aimar_tevez@hotmail.com)

Tuning: Standard (EADGBe)

Intro
e |------------------------7-----|
B |-----10-----------------------|
G |-7--------9---7/9---7-------7-|   {repeat 2x}
D |------------------------------|
A |------------------------------|
E |------------------------------|


Verse 1:


I want to trip inside your head
Spend the day there...

e |---------------------------7---|
B |---------10--------------------|
G |-(7)-7-------9----7/9-7--------|
D |-------------------------------|
A |-------------------------------|
E |-------------------------------|


*Repeat the pattern for the rest of the verse

Pre-Chorus:

Freedom has a scent
Like the top of a new born baby's head

play either;

D |--7/6---0------7---6----------|
A |--5/4---0------5---4----5-----|
E |------------------------3-----|

or

A |--5/4---0------5---4----------|
E |------------------------3-----|

whichever you prefer..both seems okay to me

Chorus:

e |-10-10-10-10-10-10-10-10-10-10-10-10-10-10-10-10-|
B |-7--7--7--7--7--7--7--7--8--8--8--8--8--8--8--8--|
G |-7--7--7--7--7--7--7--7--7--7--7--7--7--7--7--7--| {repeat}
D |-------------------------------------------------|
A |-------------------------------------------------|
E |-------------------------------------------------|


Before Verse 2:

e |-----7----------------------------7------|
B |------------------10---------------------|
G |-7-----9----/7---------9------7------7---|
D |-----------------------------------------|
A |-----------------------------------------|
E |-----------------------------------------|

Verse 2:

Of science and the human heart
There is no limit..

e |---------------------------7---|
B |---------10--------------------|
G |-(7)-7-------9----7/9-7--------|   {repeat}
D |-------------------------------|
A |-------------------------------|
E |-------------------------------|


until


And time...will disappear:

e |-------------------------------|
B |--------10---------------------|
G |--7h9-------9---7h9--6---------|  {repeat 2x}
D |-------------------------------|
A |-------------------------------|
E |-------------------------------|

Love and logic keep us clear:
[ Tab from: http://www.guitartabs.cc/tabs/u/u2/miracle_drug_tab_ver_3.html ]
e |-------------------------------|
B |-------10---------10-----------|
G |--7h9------9h7-7------6--------|
D |-------------------------------|
A |-------------------------------|
E |-------------------------------|


Reason is on our side:

e |-------------------------------|
B |--------10---------------------|
G |--7h9-------9---7h9--6---------|
D |-------------------------------|
A |-------------------------------|
E |-------------------------------|


Love...oh:


e |----------------|
B |----------------|
G |----------------|    (not sure about this part)
D |----------------|
A |-5--4------5--4-|
E |-------3--------|

*Chorus

Right after the chorus:

....Miracle Drug...yeaaa...

e |------7-------------|
B |-----------10h7-----|
G |---7----------------|
D |--------------------|
A |--------------------|
E |--------------------|


Solo (slide and sustain when possible)

e |-----------------------------------------------------------------|
B |-----------------------------------------------------------------|
G |-----------------------------------------------------------------|
D |---7/12------12/11---/7--7/9/0-------11/12---12/14---12/11---/9--|
A |-----------------------------------------------------------------|
E |-----------------------------------------------------------------|

e |------------------------------------|
B |--12/10--/14-(10)---7/5--/10--(7)---|
G |------------------------------------|
D |------------------------------------|
A |------------------------------------|
E |------------------------------------|


e |-12-12-12-12-12-12-12-12-12/14-14-14-14-14-14-14-----|
B |-10-10-10-10-10-10-10-10-10/12-12-12-12-12-12-12-----|
G |-----------------------------------------------------|

e |-5-5-5-5-5-5-5-5--7-7-7-7-7-7-7-7/
B |-3-3-3-3-3-3-3-3--5-5-5-5-5-5-5-5/
G |---------------------------------/

e |-17-17-17-17-17-17--15-15-15-15/14-14-14-14----------|
B |-15-15-15-15-15-15--12-12-12-15/12-12-12-12----------|
G |-----------------------------------------------------|

e |--12-12-12-12/14-14-14-14-10-10-10-10--10/7-7-7-7----|
B |--10-10-10-10/12-12-12-12-8--8--8--8---8--5-5-5-5----|


*You can also play the ending of the solo without the B string part..just the high-e string.


I haven't figured out the bridge yet...

*Chorus

Well thats it..this is my first tab..im kinda unsure about some parts of the song, and i 
got the bridge part where Edge sings, but apart from that the rest seem okay to me. Enjoy
Comments