U2 - Love Rescue Me Chords & Tabs

 

Love Rescue Me Chords & Tabs

U2 Chords & Tabs

Version: 1 Type: Tab 0 ratings
1 star 2 stars 3 stars 4 stars 5 stars
comments

Love Rescue Me Tab

   
#----------------------------------PLEASE NOTE---------------------------------#
#This file is the author's own work and represents their interpretation of the #
#song. You may only use this file for private study, scholarship, or research. #
#------------------------------------------------------------------------------##
#

From: Scott A. Yanoff 

 U2

 Love Rescue Me     (from the album "Rattle and Hum")
 --------------

 INTRO uses verse chords (see formations at end of document)


 Love rescue me
 A           A7

 Come forth and speak to me
      D			 A

 Raise me up and don't let me fall
	  A                   E

 No man is my enemy
    A	         A7

 My own hands imprison me
	D	       A

 Love rescue me
 A    E      A


 (Same chord arrangement for other verses: )
 Many strangers have I met
 On the road to my regret
 Many lost who seek to find themselves in me
 They ask me to reveal
 The very thoughts they would conceal
 Love rescue me

 And the sun in the sky makes a shadow of you and I
	 D			A

 Stretching out as the sun sinks in the sea
					E    A/E  E7

 I'm here without a name in the palace of my shame
     A              A7          D            A

 Said love rescue me
           E      A

 (Same chords as first 2 verses: )
 In the cold mirror of a glass
 I see my reflection pass
 I see the dark shades of what I used to be
 I see the purple of her eyes
 The scarlet of my lies
 Love rescue me

 And the sun in the sky makes a shadow of you and I
 Stretching out as the sun sinks in the sea
 I'm hanging by my thumbs
 I'm ready for whatever comes
 Love rescue me

 Yeah though I walk through the valley of shadow
 E			        A

 Yet I will fear no evil
 E                A

 I have cursed thy rod and staff
	A                  A7

 They no longer comfort me
	 D              A

 Love rescue me
      E      A

 Love rescue me
      E      A

 Sha la la sha la la
 Sha la la sha la la

 I've conquered my past
 The future is here at last
 I stand at the entrance
 To a new world I can see
 The ruins to the right of me
 Will soon have lost sight of me
 Love rescue me

CHORD FORMATIONS:
A   x 0 2 2 2 0
A7  x 0 2 2 2 3
D   x x 0 2 3 2
E   0 2 2 1 0 0
E7  x x 0 1 0 0

All chords are arpeggiated (meaning pluck out each string)
For example:
[ Tab from: http://www.guitartabs.cc/tabs/u/u2/love_rescue_me_tab.html ]
E--------------------|------------------------|
B------2-------2-----|---3-------3------ <----| Most chords play just these
G----2---2---2---2---|-2---2---2---2---- <----|  three strings during most of
D--2-------2-------2-|-------0-------0-- <----|  the song.
A--------------------|------------------------|
E--------------------|------------------------|
  (A Chord)		(D Chord)

Date: Fri, 14 Feb 1997 19:32:43 +0000
From: Jonathan Lozoya 

This is one of my favorite songs, teach it to a friend... .
Love Rescue Me
by U2
>From Rattle and Hum
Please give me credit if you post this elsewhere.

E -------------------------------2-------------------------------------|
B -------2-----------2---------3---3---------2-----------2-----------2-|
G -----2---2-------2---2-----2-------2-----2---2-------2---2-------2---|
D ---2-------2---2-------2-0-------------2-------2---2-------2---2-----|
A -0-----------0-----------------------0-----------0-----------0-------|
E ---------------------------------------------------------------------|

E -----------------------------------------------------------2-----|
B -----------0-----------0-----------2-----------2---------3---3---|
G -2-------1---1-------1---1-------2---2-------2---2-----2-------2-|
D ---2---2-------2---2-------2---2-------2---2-------2-0-----------|
A -----0-----------0-----------0-----------0-----------------------|
E -----------------------------------------------------------------|

E --------------------------------------------------------------|
B --------2----------2-----------0-----------2-----------2------|
G ------2---2------2---2-------1---1-------2---2-------2---2----|
D ----2-------2---2------2---2-------2---2-------2---2-------2--|
A --0-----------0----------0-----------0-----------0------------|
E --------------------------------------------------------------|

E -------------------------------2-------------------------------------|
B -------2-----------2---------3---3---------2-----------2-----------2-|
G -----2---2-------2---2-----2-------2-----2---2-------2---2-------2---|
D ---2-------2---2-------2-0-------------2-------2---2-------2---2-----|
A -0-----------0-----------------------0-----------0-----------0-------|
E ---------------------------------------------------------------------|
   Love rescue me           come fourth and speak to me  raise me up

E -----------------------------------------------------------2-----|
B -----------0-----------0-----------2-----------2---------3---3---|
G -2-------1---1-------1---1-------2---2-------2---2-----2-------2-|
D ---2---2-------2---2-------2---2-------2---2-------2-0-----------|
A -----0-----------0-----------0-----------0-----------------------|
E -----------------------------------------------------------------|
and don't let me fall                                            ..etc.


I didn't have much time to finish it but that's the main riff

Jonathan@selfdestruct.com
Comments