U2 - Love Comes Tumbling Chords & Tabs

 

Love Comes Tumbling Chords & Tabs

U2 Chords & Tabs

Version: 1 Type: Bass Tab 0 ratings
1 star 2 stars 3 stars 4 stars 5 stars
comments

Love Comes Tumbling Bass Tab

   
LOVE COMES TUMBLING  BASS TABS BY U2
LOVE COMES TUMBLING
ALBUM.WIDE AWAKE IN AMERICA
LYRICS:BONO
TABBED BY:SEBASTIAN BARBERIS
REFERENCES:
S:SLAP
H:HAMMER

INTRO (BEFORE  BONO´S VOICE)
|---------1-3--|
|--------------|
|--------------|
|--------------|

|---------4/12-12-12-12---12-10-10-10--------------12-12-12-12----------------------|
|--------------------------------------------10-12-14-------------------12H-14H-15--|
|-----------------------------------------------------------------------------------|
|-----------------------------------------------------------------------------------|

|-----------------|
|-12-12-10-12-12--|
|-----------------|
|-----------------|

VERSE
GIRL DON´T NEED TO FIND A WAY.......
|-7-7--------9-7-----------|7-7-------9-7-------|
|------7-9-9------7-7-7-5|----7-9-9----5-5-5-7--|
|----------------------------|------------------|    (X2)
|----------------------------|------------------|

CHORUS
ALL ROADS LEAD.........
|-------------------------------------|
|-------------------------------------|   (X4)
|--0-4S-4SH-6-4S----------------------|
|---------------------0-9S-9SH-11-9S--|

VERSE
THE SEED SPILLED...............
|----7-9-9-9-7-9---5-5-5-5-5-5-5-5-|-7-7-------9-7-----------|--7-7--------9-7----------------|
|-----------------------------------------|-----7-9-9------7-7-7-5-|------7-9-9------5-5-5-7--|
|-----------------------------------------|---------------------------|-----------------------|
|-----------------------------------------|----------------------------|----------------------|

CHORUS
|--------------------------------------------------------------------------------|
|--------------------------------------------------------------------------------|
|-0----------------------0-4S-4SH-6-4SH---------------------------0-4S-4SH-6-4S--|
|---0-9S-9SH-11-9S---------------------------0-9S-9SH-11-9S----------------------|

|--------------------------------------------------|
|--------------------------------------------------|
|-----------------------0-4S-4SH-6-4S--------------|
|-0-9S-9SH-11-9S----------------------0-9S-9SH-11--|

AFTER CHORUS
|---------------------------------------------|
|--6—12-10-12-10-12H-13-13-13-13-13-11-13-13--|
|---------------------------------------------|
|---------------------------------------------|

|----------------------5-5-5-5-5-5-5-5|-------------------------------------|
|--5-5-5-5-5-5-5-5--------------------|--6---12-10-12-10-12-12-12-12-12-12--|
|-----------------------------------------|---------------------------------|
|-----------------------------------------|---------------------------------|

|---------------------5-5-5-5-5-5-5-5-|-----------------------------------------|
|-5-5-5-5-5-5-5-5---------------------|-6—12-10-12-10H-15-15-15-15-15-13-15-15--|
|-----------------------------------------|-------------------------------------|
|-----------------------------------------|-------------------------------------|

|---------------------5-5-5-5-5-5-5-5-|-------------------------------------|
|-5-5-5-5-5-5-5-5---------------------|-6—12-10-12-10H-12-10-12-12-12-10-8--|
|-----------------------------------------|---------------------------------|
|-----------------------------------------|---------------------------------|

BASS SOLO
|-5-5-0-5-5—5-5--8-6-8-11-9---------------------------5-5-0-5-5---7-5-5-5-7-5-3--|
|-----------------------------------6—12-10-12-10-8-10---------------------------|
|--------------------------------------------------------------------------------|
|--------------------------------------------------------------------------------|

|-----------------------------------5-5-0-5-5--|
|-5-5H-7H-8-5----------------------------------|
|------------------5-7-7-7-7-5-7---------------|
|----------------------------------------------|
[ Tab from: http://www.guitartabs.cc/tabs/u/u2/love_comes_tumbling_btab.html ]
VERSE
GIRL DON´T NEED TO FIND A WAY...
|---------------------7-7-7-7-7-7-7-7----------------------7-7-7-7-7-7-7-7--|
|-9-9-9-9-9-9-9-9----------------------9-9-9-9-9-9-9-9----------------------|
|---------------------------------------------------------------------------|
|---------------------------------------------------------------------------|

|-7-7----------9-7----------------7-7--------9-7----------|
|------7-9-9---------7-7-7-5---------7-9-9-------5-5-5-7--|
|---------------------------------------------------------|
|---------------------------------------------------------|

CHORUS
|-------------------------------------|
|-------------------------------------|  (X4)
|-0-4S-4SH-6-4S-----------------------|
|---------------------0-9S-9SH-11-9S--|

AFTER CHORUS
|-5-5-0-5-5-5-5-5-5-5-5|----------------------5-5-5-5-5-5-5-5--|
|----------------------------|-5-5-5-5-5-5-5-5-----------------|
|----------------------------|---------------------------------|
|----------------------------|---------------------------------|

|-------------------------------------------------|---------------------5-5-5-5-5-5-5-5--|
|-6-12-10-12-10-12H-15-15-15-15-13-16|-5-5-5-5-5-5-5-5-----------------------------------|
|-------------------------------------------------|--------------------------------------|
|-------------------------------------------------|--------------------------------------|


|-----------------------------------------------|----------------------5-5-5-5-5-5-5-5--|
|-6-12-10-12-10-12-10-12-12-12-10-12-|-5-5-5-5-5-5-5-5----------------------------------|
|-----------------------------------------------|---------------------------------------|
|-----------------------------------------------|---------------------------------------|

|-----------------------------------------------|----------------------5-5-5-5-5-5-5-5--|
|-6-12-10-12-10-12-10-12-12-12-10-12-|-5-5-5-5-5-5-5-5----------------------------------|
|-----------------------------------------------|---------------------------------------|
|-----------------------------------------------|---------------------------------------|

|-------------------------------------------------|----5-5-0-5-5—5-5-0-5-0-7-----------|
|-6-12-10-12-10H-12-10-12-12-12-10-8--|---------------------------------7-7-0-7-7—7-7--|
|-------------------------------------------------|------------------------------------|
|-------------------------------------------------|------------------------------------|

|-----------5-5-0-5-5------------------5-5-0-5-5------------------|------------|
|-0-7-9-7-------------7-7-0-9-7-9-7--------------7-7-0-9-7-9-7|-7-7-9-7-7-5-5--|
|----------------------------------------------------------------------|-------|
|----------------------------------------------------------------------|-------|

|-9-7-7-7-5-3----------------5-5-0-5-5--------------------5-5-0-5-5--|
|-----------------7-7-0-7-9-7-------------7-7-0-7-9-7----------------|
|--------------------------------------------------------------------|
|--------------------------------------------------------------------|

|-5-5-5-5-5-5-5-5----------------------------|
|----------------------5-5-5-5-5-5-5-5-------|     (X5)
|--------------------------------------------|
|--------------------------------------------|

|---------------------------------10-10-10-10-10-10-10-10-----------|
|-10-10-10-10-10-10-10-10-------------------------------------------|    (X2)
|-------------------------------------------------------------------|
|-------------------------------------------------------------------|

|-10-10-------------12-10-------------------------10-10------------12-10---------|
|---------10-12-12-----------10-10-10-8----------------10-12-12--------8-8-8-10--|
|--------------------------------------------------------------------------------|
|--------------------------------------------------------------------------------|

|-10-10--------------12-10-------------------------|
|----------10-12-12-----------10-10-10-8-----------|
|--------------------------------------------------|
|--------------------------------------------------|

THE END
P.D:PLEASE,YOU GOTTA APPRECIATE THIS TAB BECAUSE IS THE RIGHT ONE
AND IT´S THE ONLY YOU CAN FIND
Comments