U2 - Love And Peace Or Else Chords & Tabs

 

Love And Peace Or Else Chords & Tabs

U2 Chords & Tabs

Version: 1 Type: Bass Tab

Love And Peace Or Else Bass Tab

   
I'll try and make this as easy as possible to understand

I tabbed this from their Vertgo Live Tour DVD from Chicago so stick me if it is 
to the album version

Tuning (D A D G)

Synth intro = No bass

G|------------|
D|------------|
A|------------|
D|--0-0-------|  x4

Lyrics begin

G|------------|
D|------------|
A|------------|
D|--0-0-------|  x2

G|----------------------|----------------------|
D|----------------------|----------------------|
A|--------35-3-5------5-|--------35-3-5-2-3----|
D|--0-0-----------------|--0-0-----------------|  x4

Main Riff on Guitar starts

G|----------------------|----------------------|
D|----------------------|----------------------|
A|--------35-3-5------5-|--------35-3-5-2-3----|
D|--0-0-----------------|--0-0-----------------|  x4

Bridge ("I don't know.....")

G|---------------------------------------------------|
D|---------------------------------------------------|
A|---------------------------------------------------|
D|---5-5-5-5-5-5-5-5-0-0-0-0-0-0-0-0-7-7-7-7-7-7-7-7-|

Chorus ("We need some release....")
[ Tab from: http://www.guitartabs.cc/tabs/u/u2/love_and_peace_or_else_btab.html ]
G|----------------------2-2-4-4-5-5----|
D|----------2-2-4-4-5-5----------------|
A|--3-3-5-5----------------------------|
D|-------------------------------------|


G|---------------------------|
D|---------------------------|
A|----------5-3-2-3----------|
D|--0-0-55-------------------|  x4

G|----------------------|----------------------|
D|----------------------|----------------------|
A|--------35-3-5------5-|--------35-3-5-2-3----|
D|--0-0-----------------|--0-0-----------------|  x4


Bridge ("I don't know.....")

G|---------------------------------------------------|
D|---------------------------------------------------|
A|---------------------------------------------------|
D|---5-5-5-5-5-5-5-5-0-0-0-0-0-0-0-0-7-7-7-7-7-7-7-7-|


Chorus ("We need some release....")

G|----------------------2-2-4-4-5-5----|
D|----------2-2-4-4-5-5----------------|
A|--3-3-5-5----------------------------|
D|-------------------------------------|


G|---------------------------|
D|---------------------------|
A|----------5-3-2-3----------|
D|--0-0-55-------------------|  x4


2nd Bridge (singing and guitar)

No Bass

Synth
G|----------|
D|----------|
A|----------|
D|--0-0-----| x2

Guitar
G|----------|
D|----------|
A|----------|
D|--0-0-----| x2

G|-------------------|
D|-------------------|
A|-------------------|
D|--0-0-55--0-0-5-3--|

Ending which I don't know

Enjoy and rate please. I don't care how bad.