U2 - Lemon Chords & Tabs

 

Lemon Chords & Tabs

U2 Chords & Tabs

Version: 1 Type: Bass Tab 0 ratings
1 star 2 stars 3 stars 4 stars 5 stars
comments

Lemon Bass Tab

   
U2 "Lemon" -BASS TAB
--------------------
steve palmer am560@freenet.carleton.ca

Tune down 1/2 step: Eb Ab Db Gb


This song is made up of three parts:

1. Main Bass Riff:

|------------------------------------------------------------|
|--5---------------5-------------5---------------5-----------|
|-----7-5-7-----------7-5-7---------7-5-7-----------7-5-7----|
|-----------5-7-------------5-------------5-7-------------5--|


2. Pre-Chorus: ("and i feel...")
[ Tab from: http://www.guitartabs.cc/tabs/u/u2/lemon_btab.html ]
|------------------------------------------------------------|
|------------------------------------------------------------|
|--5-5-5-5--5-5-5-5--0-0-0-0--3-3-3-3------------------------|
|------------------------------------------------------------|


3. Chorus: ("midnight...")

|------------------------------------------------------------|
|--5-5-5-5---------------------------------------------------|
|-----------5-5-5-5--3-3-3-3--3-3-3-3------------------------|
|------------------------------------------------------------|





Comments