U2 - In A Little While Chords & Tabs

 

In A Little While Chords & Tabs

U2 Chords & Tabs

Version: 4 Type: Tab 1 rating
1 star 2 stars 3 stars 4 stars 5 stars
comments

In A Little While Tab

   
This is pretty right....

intro/verse
E-----------------------------------------------------------
B------5---------7---------7------8---8--7--8--8--7---5-----
G--------6---------6---------7------7----7--7--7--7---6-----
D-6/7------7-/8------8-/9------9----------------------7----- A BUNCH OF TIMES
A----------------------------------------------------(0)----
E-----------------------------------------------------------

or

A  F#  B  G  D  A  over and over

CHORUS:

Bm  G  D  A

Bridge:
[ Tab from: http://www.guitartabs.cc/tabs/u/u2/in_a_little_while_tab_ver_4.html ]
Bm  G  A  D  A  D

BASS: (not exact, but sounds really good)
verse
G------------------------------------------------------
D------------------------------------------------------ repeat
A-0-0--0--------2-2-2-0--------5-5-5-5--2-2--0-0-0-0---
E--------2-2--2---------3-3-3--------------------------

Chorus:
G------------------------------------------
D------------------------------------------
A-2--2--2-0-----------5--5-5--2--0--0-0---- repeat
E-----------3--3--33-----------------------

For the bass in the bridge, use the root note over the power 
chords above.



Comments