U2 - I Threw A Brick Chords & Tabs

 

I Threw A Brick Chords & Tabs

U2 Chords & Tabs

Version: 1 Type: Tab 0 ratings
1 star 2 stars 3 stars 4 stars 5 stars
comments

I Threw A Brick Tab

I Threw A Brick
Tabbed by John Couillard
Standard Tuning

Intro:

-------------------------------------------------------|
-------------------------------------------------------|
-------------------------6--------------6--------------|
---------7-----------7--------------7--------------7---|
-12/---7---7-5-----7---7---5-7----7---7---5-7----7---7-|
-----0----------0---------------0--------------0-------|

-----------------------------------------------------|
-/12-12-xx-12----------------------------------------|
-/12-12-xx-12---------------------6------------------|
-------------------7----------7---------------7------|
-----------------7---7-5----7---7----5-7----7---7-5--|
---------------0----------0---------------0----------|

------------------------------|
--------------/12-12-xx-12----| let ring
--------------/12-12-xx-12----|
-----7------------------------|
---7---7----------------------|
-0----------------------------|

VERSE:
[ Tab from: http://www.guitartabs.cc/tabs/u/u2/i_threw_a_brick_tab.html ]
-----------------------------------0----------------|
-15-15-15-14-14-14-12-12-12-13-----0-------12--ring-|
-12-12-12-12-12-12-12-12-12-12-------------12--ring-| 2X
----------------------------------------------------|
----------------------------------------------------|
----------------------------------------------------|

"He was my brother"  USE SLIDE
Just listen for when to slide from the two chords.
They both take turns starting the slide.
It's easy to pick up on.
-------
-12\10-        I have to double check on this
-12\10-  then  I dont have my guitar on me now BUT
-12\10-        I think I might have meant to put
----------------|        something else. I'll check later..
----------------|

"going Nowhere"
Mess with this chord
---------|
-7--7--7-|
-7--7--7-|
-7--7--7-|
---------|
---------|

SOLO: Using Slide. Just listen for when to hit the note
before sliding

-------------------------------------------|
-------------------------------------------|
-9\7/9-9\7/9-9\7/12-9\16-------------------|   4X
-------------------------------------------| Note that on the
-------------------------------------------| 3X Edge does this
------------------------- G--9\7/9-9\7\4---|

And that's all the parts of the song.

supadad915@yahoo.com
Comments