U2 - I Still Havent Found What Im Looking For Chords & Tabs

 

I Still Havent Found What Im Looking For Chords & Tabs

U2 Chords & Tabs

Version: 3 Type: Tab

I Still Havent Found What Im Looking For Tab

PLEASE NOTE
#This file is the author's own work and represents their interpretation of the-#
#song. You may only use this file for private study, scholarship, or research.-#


Tabbed by Jura Bartonek (Jago syn Jungle) from Czech Repbulic.6.12.05. This is my
third tab.Some questions on juraeso@seznam.cz
This is one of best song by U2. Sound is nice but you should have echo. But i dont
have :-(
U2 - I still havent found what im looking for
[ Tab from: http://www.guitartabs.cc/tabs/u/u2/i_still_havent_found_what_im_looking_for_tab_ver_3.html ]
  VERSE:
e[-------4---4--*-----4---4-*-/(8)-*--------------------------------------]
B[-----2--2-2---*---2--2-2--*------*--------------------------------------]
G[--------------*-----------*------*--------------------------------------]
D[--------------*--4--------*------*--------------------------------------]
A[---4----------*-----------*------*--------------------------------------]
E[--------------*-----------*------*--------------------------------------] 

  CHORUS: (But Im still....)
e[-------4----4-*-----------*------------*--------------------------------]
B[-----2---2-2--*----2---2--*------2---2-*--------------------------------]
G[--------------*-----------*------------*--------------------------------]
D[--------------*--4--4-----*----3---3---*--------------------------------]
A[--4-----------*-4---------*--4---------*--------------------------------]
E[--------------*-----------*------------*--------------------------------] 

  Time: 1:31 - Electric guitar
e[----------------------------------------]
B[--7-7-6-6----6-6-7-7---7-7-6-6----------]
G[--6-6-6------6-6-6-----6-6-6-6----------]
D[----------------------------------------]
A[----------------------------------------]
E[----------------------------------------]