U2 - I Still Havent Found What Im Looking For Chords & Tabs

 

I Still Havent Found What Im Looking For Chords & Tabs

U2 Chords & Tabs

Version: 3 Type: Bass Tab 0 ratings
1 star 2 stars 3 stars 4 stars 5 stars
comments

I Still Havent Found What Im Looking For Bass Tab

This is only my 1st tab ive done so it might not be brilliant so forgive me.

Verse:

G--------------------------------------------]
D--------------------------------------------]
A--------------------------------------------]
E-5-5-5-3--5-5-5-3--5-5-5-3--5-5-5-3--5-5-5-3]
[ Tab from: http://www.guitartabs.cc/tabs/u/u2/i_still_havent_found_what_im_looking_for_btab_ver_3.html ]
G---------------------------------]
D---------------------------------]
A-5-5-5-3--5-5-5-3----------------]
E-----------------5-5-5-3--5-5-5-3]

Chorus:

G---------------------------]
D---------------------------]
A-7--7-5--5-----------------]
E-----------5-5-5-3--5-5-5-3]

It repeats itself so this is all you need (i hope)
Comments