U2 - Helter Skelter Chords & Tabs

 

Helter Skelter Chords & Tabs

U2 Chords & Tabs

Version: 1 Type: Tab

Helter Skelter Tab

   
-----------------------------------------------------------------------------
			     Helter Skelter - U2
-----------------------------------------------------------------------------
Tabbed by: olive14
Email: olive14@u2.com

Tuning: EbAbDbGbBbeb

Very simple…
90 % of the song, Edge strums the 3 first strings than the 3 lasts when there
are chords

e|-0-0-0-3-0-0-0---3-5-0-0----------------0---------------0-----------------|
B|-3-2-1-3-0-0-0---3-5-0-2----------------0---------------2-----------------|
G|-4-2-0-4-1-2-1---4-6-1-2-0--------------1---------------2-0---------------|
D|-------5-2-2-2---5-7-2-2---4-2-0--------2-0-------------2---4-2-0---------|
A|-------5-2-2-2---5-7-2-0---------2-0----2---4-2-0-------0---------2-0-----|
E|-------3-0-0-0---3-5-0---------------3~-0---------3-2-0---------------3~0-|
[ Tab from: http://www.guitartabs.cc/tabs/u/u2/helter_skelter_tab.html ]
e|-0-------12-------12-0-------10-------10-0-------15-------15-0-------10---|
B|-0-15/17----15/17----2-10/12----10/12----0-15/17----15/17----2-10/12------|
G|-1-------------------2-------------------1-------------------2------------|
D|-2-------------------2-------------------2-------------------2------------|
A|-2-------------------0-------------------2-------------------0------------|
E|-0---------------------------------------0--------------------------------|

e|-------10-0---------------------------------------------------------------|
B|-10/12----0---------------------------------------------------------------|
G|----------1---------------------------------------------------------------|
D|----------2---------------------------------------------------------------|
A|----------2---------------------------------------------------------------|
E|----------0---------------------------------------------------------------|

And so on…

Forgive my bad English !!!
Hoping this can help

The best page to get Edge’s sound :
http://www.amnesta.net/edge_delay/  Good luck with it !!!

| /  slide up
| \  slide down
| h  hammer-on
| p  pull-off
| ~  vibrato
| +  harmonic
| x  Mute note
=============================================================================